Oops, an error
Loading. Please wait.

Forgot Your Wings Tab

version 1
version 1

Whole song

948 views 1 this week
no commentswrite comment
1 2 3 4 5
3 more votes to show rating
add to favorites
launch autoscroll
font size
0
reset
how to read this tab
guitar tuner
Autoscroll
slow
fast
+/-
esc
set tempo
stop
Help us to improve Ultimate-Guitar.com Take our survey!
×
Author
Difficulty
intermediate
Well I haven't found any actual tabs of this yet, it's just the tabs of the recording
did on video, I dunno if they're 100% accurate but I hope it'll help you all :) enjoy.
please don't forget to see the corrections comments part and watch out for mine and 
people comments on corrections that might help immensely :D thanks. Hope you can understand
strumming patterns and such, just listen to it if you're stuck, I'll try to get a 
video or cover up to help.


E---------------------------------------|
B---3-3---3-3---3-3---3-3---3-3---3-3-0-|
G---2-2---2-2---0-0---2-2---2-2---2-2-0-|
D---------------------------------------|
A---------------------------------------|
E-3-----2-----0-----2-----3-----2-----0-|


When ya dance, the stars they come out just to watch you move
E-------------------------------------------|
B---3-3---3-3---3-3---3-3---3-3---3-3---3-3-|
G---2-2---2-2---0-0---2-2---2-2---2-2---0-0-|
D-------------------------------------------|
A-------------------------------------------|
E-3-----2-----0-----2-----3-----2-----0-----|


When ya spin round the room, the earth, it spins with you too
E--------------------------------------|-------------------|
B----3-3---3-3---3-3---3-3---3-3---3-3-|---3-3---3-3---3-3-|
G----2-2---2-2---2-2---0-0---2-2---2-2-|---2-2---0-0---0-0-|
D--------------------------------------|-------------------|
A--------------------------------------|-------------------|
E--2-----3-----2-----0-----2-----3-----|-2-----0-----0-----|


And there's not much else I can do
E---------------------------------|
B---3-3---3-3---3-3---3-3--3------|
G---0-0---0-0---2-2---2-2--2------|
D---------------------------------|
A-------------0-----0------0------|
E-0-----0-------------------------|


But I dream that I'm dancing alone on this planet with you
E-0------0-----0------0------0-----------|
B-3------3-----3------3------3-----------|
G-2------2-----2------2------2-----------|
D-2------0-----0------0------0-----------|
A-0------4-----0------0------0-----------|
E-2------2-----0------2------3-----------|


When you move, heaven bends down to see you're an angel, and you're dancing for me
E-0----0----0----0----|
B-3----3----3----3----|
G-2----2----2----2----|
D-0----0----2----0----|
A-0----0----0----4----|
E-3----2----2----2----|


When you came down form somewhere above, you forgot your wings
E--0----0----0---0--------------------|
B--3----3----3---3--------------------|
G--2----2----2---2--------------------|
D--0----2----0---2--------------------|
A--0----0----2---0--------------------|
E--3----3----3---3--------------------|

But that doesn't matter tonight
E---0----0---|
B---3----3---|
G---2----2---|
D---0----2---|
A---0----0---|
E---3----2---|

I feel like we're flying
E---------------------------------------|
B---3-3---3-3---3-3---3-3---3-3---3-3-0-|
G---2-2---2-2---0-0---2-2---2-2---2-2-0-|
D---------------------------------------|
A---------------------------------------|
E-3-----2-----0-----2-----3-----2-----0-|

When ya dance, the flowers, they bloom just to watch you move
E-------------------------------------------|
B---3-3---3-3---3-3---3-3---3-3---3-3---3-3-|
G---2-2---2-2---0-0---2-2---2-2---2-2---0-0-|
D-------------------------------------------|
A-------------------------------------------|
E-3-----2-----0-----2-----3-----2-----0-----|


And the breeze starts to blow so you won't have to dance all alone
E--------------------------------------|-------------------|
B----3-3---3-3---3-3---3-3---3-3---3-3-|---3-3---3-3---3-3-|
G----2-2---2-2---2-2---0-0---2-2---2-2-|---2-2---0-0---0-0-|
D--------------------------------------|-------------------|
A--------------------------------------|-------------------|
E--2-----3-----2-----0-----2-----3-----|-2-----0-----0-----|


And there's no where else I can go
E---------------------------------|
B---3-3---3-3---3-3---3-3--2------|
G---0-0---0-0---2-2---2-2--2------|
D---------------------------------|
A-------------0-----0------0------|
E-0-----0-------------------------|


But I'm with you wherever you go, please just lead and I'll follow
E-0------0-----0------0------0-----------|
B-3------3-----3------3------3-----------|
G-2------2-----2------2------2-----------|
D-2------0-----0------0------0-----------|
A-0------4-----0------0------0-----------|
E-2------2-----0------2------3-----------|


When you move, angels bend down to see you're an angel, and you're dancing for me
E-0--0-0---0--0-0---0--0-0---0--0-0|
B-3--3-3---3--3-3---3--3-3---3--3-3|
G-2--2-2---2--2-2---2--2-2---2--2-2|
D-0--0-0---0--0-0---2--2-2---0--0-0|
A-0--0-0---0--0-0---0--0-0---4--4-4|
E-3--3-3---2--2-2---2--2-2---2--2-2|(do some up strums in between each chord)


When you came down form somewhere above, you forgot your wings
E--0----0----0---0---------|
B--3----3----3---3---------|
G--2----2----2---2---------|
D--0----2----0---2---------|
A--0----0----2---0---------|
E--3----3----3---3---------|(do same pattern as last set strum wise)


But that doesn't matter tonight
E---0----0---|
B---3----3---|
G---2----2---|
D---0----2---|
A---0----0---|
E---3----2---|


I feel like we're flying
E---------------------------------------|
B---3-3---3-3---3-3---3-3---3-3---3-3-0-|
G---2-2---2-2---0-0---2-2---2-2---2-2-0-|
D---------------------------------------|
A---------------------------------------|
E-3-----2-----0-----2-----3-----2-----0-|


And where did your halo go? Are you hiding it under those lovely brown curls of yours?
E--------------------------------------------------------|
B---3-3---3-3---3-3---3-3---3-3---3-3---3-3---3-3--------|
G---2-2---2-2---2-2---2-2---2-2---2-2---2-2---2-2--------|
D-------0-----------------------0------------------------|
A-2-----------0-----0-----2-----------0------------------|
E-------------------------------------------3------------|


Is it a secret that no one can know?
And if so, can you trust it with me please?
E---------------------------------0-|
B---3-3---3-3---3-3---3-3--3-3-3--2-|
G---2-2---2-2---2-2---2-2--2-2-2--3-|
D-------0-------------------------0-|
A-2-----------0-----2------2-0----0-|
E------------------------------3--2-|


When you move, angels bend down to see you're an angel, and you're dancing for me
E-0----0----0----0----|
B-3----3----3----3----|
G-2----2----2----2----|
D-0----0----2----0----|
A-0----0----0----4----|
E-3----2----2----2----|


When you came down form somewhere above, you forgot your wings
E--0----0----0--|-0-----|
B--3----3----3--|-3-----|
G--2----2----2--|-2-----|
D--0----2----0--|-2-x8--|
A--0----0----2--|-0-----|
E--3----3----3--|-3-----|


When you move, angels bend down to see you're an angel, and you're dancing for me
E-0----0----0----0----|
B-3----3----3----3----|
G-2----2----2----2----|
D-0----0----2----0----|
A-0----0----0----4----| (continue strumming accordingly)
E-3----2----2----2----|


When you came down form somewhere above, you forgot your wings
E--0----0----0--|-0-----|
B--3----3----3--|-3-----|
G--2----2----2--|-2-----|
D--0----2----0--|-2-----| (continue strumming accordingly)
A--0----0----2--|-0-----|
E--3----3----3--|-3-----|


But that doesn't matter tonight I feel like we're flying.
E---0----0---|
B---3----3---|
G---2----2---|
D---0----2---|
A---0----0---|
E---3----2---|
Suggest correction
Give kudos to tab author, rate the tab!
1 2 3 4 5
comments
print report bad tab
guest
You may want to rate the tab now too:
select rating
Wanna post a correction for this tab? Suggest correction