Oops, an error
Loading. Please wait.

Forgot Your Wings Tab

version 2
version 2

Whole song

370 views 1 this week
no commentswrite comment
1 2 3 4 5
please rate
add to favorites
launch autoscroll
font size
0
reset
how to read this tab
guitar tuner
Tab Pro tools
  • play this tab
  • loop segment
  • change instrument
  • show fretboard
  • metronome
×
Best way to learn
"Forgot Your Wings"
Autoscroll
slow
fast
+/-
esc
set tempo
stop
Difficulty
Capo
intermediate
3rd fret
Chase coy - Forgot your wings

Capo 3

C - X3201X
(I name this chord C/B) - X2001X
Am - X0221X
G - 32000X
F - X33211

I found this tab. It's a little messed up with I hope it helps (:

Intro:
E-----------------------------------------------------------------------------------|
B-------1---1-----1--1-----1--1------1---1-----1--1-----1--1---1--------------------|
G-------0---0-----0--0-----2--2------2---2-----0--0-----0--0---2--------------------|
D-------2---2-----0--0-----2--2------2---2-----0--0-----2--2---2--------------------|
A----3----------2---------0---------2--------3-----------2---------0----------------|
E-----------------------------------------------------------------------------------|

When you dance.. the stars they come out just to watch you move
E-------------------------------------------------------------------------------|
B-------1---1-----1--1-----1--1------1---1-----1--1-----1--1-----1--1-----1--1--|
G-------0---0-----0--0-----2--2------0---0-----0--0-----0--0-----2--2-----0--0--|
D-------2---2-----0--0-----2--2------0---0-----2--2-----0--0-----2--2-----0--0--|
A----3----------2---------0---------2--------3-----------2---------0--------2---|
E-------------------------------------------------------------------------------|

When you spin round the room the earth it spins with you too
E-------------------------------------------------------------------------------|
B-------1---1-----1--1-----1--1------1---1-----1--1-----1--1-----1--1-----1--1--|
G-------0---0-----0--0-----2--2------0---0-----0--0-----0--0-----2--2-----2--2--|
D-------2---2-----0--0-----2--2------0---0-----2--2-----0--0-----2--2-----2--2--|
A----3----------2---------0---------2--------3-----------2---------0--------0---|
E-------------------------------------------------------------------------------|

And there's not much else i can do
E---------------------------------------------------x--|
B-------1---1-----1---1-------0--0-----0--0---0--------|
G-------2---2-----2---2-------0--0-----0--0---0--------|
D-------2---2-----2---2-------0--0-----0--0---0--------|
A----0----------0----------------------------------2---|
E------------------------------3--------3----------3---|

         Am                  G        F                 G             C
But dream that i'm dancing alone on this planet with you

Chorus:
                  C                 C/B                                    Am                   G
When you move heaven bends down to see you're an angel and you're dancing for me
                  F                                         G                        Am G
When you came down from somewhere above you forgot your wings
       F
But that doesn't matter tonight, i feel like

we're flying
E-----------------------------------------------------------------------------------|
B-------1---1-----1--1-----1--1------1---1-----1--1-----1--1---1--------------------|
G-------0---0-----0--0-----2--2------2---2-----0--0-----0--0---2--------------------|
D-------2---2-----0--0-----2--2------2---2-----0--0-----2--2---2--------------------|
A----3----------2---------0---------2--------3-----------2---------0----------------|
E-----------------------------------------------------------------------------------|

When you dance, flowers they bloom just to watch you move
E-------------------------------------------------------------------------------|
B-------1---1-----1--1-----1--1------1---1-----1--1-----1--1-----1--1-----1--1--|
G-------0---0-----0--0-----2--2------0---0-----0--0-----0--0-----2--2-----0--0--|
D-------2---2-----0--0-----2--2------0---0-----2--2-----0--0-----2--2-----0--0--|
A----3----------2---------0---------2--------3-----------2---------0--------2---|
E-------------------------------------------------------------------------------|

And the breeze starts to blow, so you wont have to dance all alone
E-------------------------------------------------------------------------------|
B-------1---1-----1--1-----1--1------1---1-----1--1-----1--1-----1--1-----1--1--|
G-------0---0-----0--0-----2--2------0---0-----0--0-----0--0-----2--2-----2--2--|
D-------2---2-----0--0-----2--2------0---0-----2--2-----0--0-----2--2-----2--2--|
A----3----------2---------0---------2--------3-----------2---------0--------0---|
E-------------------------------------------------------------------------------|

And there's no where else i can go
E---------------------------------------------------x--|
B-------1---1-----1---1-------0--0-----0--0---0--------|
G-------2---2-----2---2-------0--0-----0--0---0--------|
D-------2---2-----2---2-------0--0-----0--0---0--------|
A----0----------0----------------------------------2---|
E------------------------------3--------3----------3---|

       Am               G             F                    G                C
But with you wherever you go, please just lead and ill follow

                  C                 C/B                                    Am                   G
When you move heaven bends down to see you're an angel and you're dancing for me
                  F                                         G                        Am G
When you came down from somewhere above you forgot your wings
       F
But that doesn't matter tonight, i feel like

we're flying
E-----------------------------------------------------------------------------------|
B-------1---1-----1--1-----1--1------1---1-----1--1-----1--1---1--------------------|
G-------0---0-----0--0-----2--2------2---2-----0--0-----0--0---2--------------------|
D-------2---2-----0--0-----2--2------2---2-----0--0-----2--2---2--------------------|
A----3----------2---------0---------2--------3-----------2---------0----------------|
E-----------------------------------------------------------------------------------|

And where did your halo go
E---------------------------------------------------|
B-------1---1-----1--1-----1--1------1---1----------|
G-------0---0-----0--0-----2--2------2---2----------|
D-------2---2-----0--0-----2--2------2---2----------|
A----3----------2---------0---------0---------------|
E---------------------------------------------------|

Are you hiding them under those lovely brown curls of yours
E---------------------------------------------------|
B-------1---1-----1--1-----1--1------1---1----------|
G-------0---0-----0--0-----2--2------2---2----------|
D-------2---2-----0--0-----2--2------2---2----------|
A----3----------2---------0---------0---------------|
E---------------------------------------------------|

Is it a secret that no one can know
E----------------------------------------------|
B-------1---1-----1--1-----1--1----------------|
G-------0---0-----0--0-----2--2----------------|
D-------2---2-----0--0-----2--2----------------|
A----3----------2---------0---------0----------|
E----------------------------------------------|

And if so
E----------------------|
B----------1-----------|
G----------2-----------|
D----------2-----------|
A---3--2--0------------|
E----------------------|

Can you trust it with me, please?
E-----------------------------x-|
B-----------------------------0-|
G-----------------------------0-|
D-----------------------------0-|
A-----------------------------2-|
E-----------------------------3-|

                  C                 C/B                                    Am                   G
When you move heaven bends down to see you're an angel and you're dancing for me
                  F                                         G                        Am G
When you came down from somewhere above you forgot your wings

                  C                 C/B                                    Am                    G
When you move heaven bends down to see you're an angel and you're dancing for me
                  F                                         G                        Am G
When you came down from somewhere above you forgot your wings
       F
But that doesn't matter tonight, i feel like we're flying
comments
We did not receive enough feedback on this tab! Please rate:
print report bad tab
1 2 3 4 5
I want to post or [tab]
guest
You may want to rate the tab now too:
select rating
Please do not post tabs as comments. Select "correction" instead!