Oops, an error
Loading. Please wait.

If The Moon Fell Down Tonight Tab

version 1
version 1

Whole song

42,763 views 21 this week
no commentswrite comment
1 2 3 4 5
accurate
x 8
add to favorites
launch autoscroll
font size
0
reset
how to read this tab
guitar tuner
Tab Pro tools
  • play this tab
  • loop segment
  • change instrument
  • show fretboard
  • metronome
×
Best way to learn
"If The Moon Fell Down Tonight"
Autoscroll
slow
fast
+/-
esc
set tempo
stop
Contributor
Capo
4th fret
Great song by a great artist

Capo on 4th fret

     Am       F         G       C

e|----0-------1---------3-------0----|
B|----1-------1---------0-------1----|
G|----2-------2---------0-------0----|
D|----2-------3---------0-------2----|
A|----0-------3---------2-------3----|
E|----0-------1---------3-------0----|






Intro
e|-----------------------|
B|---------1--1----------|
G|----------0--0---------|
D|----0h2-2--2--2--------|
A|---3-------------------|
E|-----------------------|

Verse 1
e|------------------------------------------------1----------------------------|
B|-----------1--1-------------0--0----------------1----------------0--0--------|
G|------------0--0-------------0--0---------------2-----------------0--0-------|
D|------0h2-2--2--2----------0--0--0--------------3---------------0--0--0------|
A|---3--------------------0h2---------------------3-----------0h2--------------|
E|-----------------------3------------------------1----------3-----------------|
    Every time i     it makes my         even though         hoping this
    See your         heart beat fast     its too soon      will last
    Smile                                  too tell i'm
e|------------------------------------------------1-----------------------------|
B|---------1---1---------------0--0---------------1-------------------0--0------|
G|----------0---0---------------0--0--------------2--------------------0--0-----|
D|----0h2-2--2---2------------0--0--0-------------3------------------0--0--0----|
A|---3---------------------0h2--------------------3---------------0h2-----------|
E|------------------------3-----------------------1--------------3--------------|
 'Cause I just            Right here         The future's       At least stay
Always wanna              by my side      near but             here for just
Have you                                  never certain        tonight

Chorus
AM                       F     AM                   F
I must've done something right to deserve you in my life
AM                       G               C
I must've done something right along the way

Verse 2
e|-----------------------------------------------1----------------------------------|
B|---------1--1--------------0--0----------------1--------------------0--0----------|
G|----------0--0--------------0--0---------------2---------------------0--0---------|
D|----0h2-2--2--2-----------0--0--0--------------3-------------------0--0--0--------|
A|---3-------------------0h2---------------------3---------------0h2----------------|
E|----------------------3------------------------1--------------3-------------------|
  I just can't get      and why would        Even when        I dream about
  you off my           I even try            I close my       you all the
   mind                                      eyes              time
e|---------------------------------------------1---------------------------------|
B|---------1--1-------------0--0---------------1------------------0--0-----------|
G|----------0--0-------------0--0--------------2-------------------0--0----------|
D|----0h2-2--2--2----------0--0--0-------------3-----------------0--0--0---------|
A|---3------------------0h2--------------------3--------------0h2----------------|
E|---------------------3-----------------------1-------------3-------------------|
  I just always          Right here        The future’s         So please
  Wanna have          by my side           near but             here for
   You                                     never certain        just tonight

Chorus
AM                       F     AM                   F
I must've done something right to deserve you in my life
AM                       G               C
I must've done something right along the way

Bridge
AM              F              C
And even if the moon fell down tonight
AM                          F
There'd be nothing to worry about at all
C
Because you make the whole world shine
AM
As long as you're here
F                                C G AM G F G
Everything would be alright

Chorus
AM                       F     AM                   F
I must've done something right to deserve you in my life
AM                       G               C
I must've done something right along the way

Outro
e|-----------------------|
B|---------1--1----------|
G|----------0--0---------|
D|----0h2-2--2--2--------|
A|---3-------------------|
E|-----------------------|
comments
print report bad tab
I want to post or [tab]
guest
You may want to rate the tab now too:
select rating
Please do not post tabs as comments. Select "correction" instead!