Oops, an error
Loading. Please wait.

If The Moon Fell Down Tonight Tab

version 2
version 2

Whole song

8,619 views 6 this week
1 commentread comment
1 2 3 4 5
excellent!
x 6
add to favorites
launch autoscroll
font size
0
reset
how to read this tab
guitar tuner
Tab Pro tools
  • play this tab
  • loop segment
  • change instrument
  • show fretboard
  • metronome
×
Best way to learn
"If The Moon Fell Down Tonight"
Autoscroll
slow
fast
+/-
esc
set tempo
stop
Contributor
Difficulty
Capo
novice
4th fret
Song title: If the moon fell down tonight
        by: Chase Coy
capo on 4th fret

(hindi po ako 100% sure dito kaya mas mabuti kung titingnan niyo itong tabs tapos 
sabay kinig sa kanta)

Chords na gagamitin: 
    C     G     F    Am
e|--0--|--0--|--1--|--0--|
B|--1--|--1--|--1--|--1--|
G|--0--|--0--|--2--|--2--|
D|--2--|--0--|--3--|--2--|
A|--3--|--2--|--3--|--0--|
E|--x--|--3--|--1--|--x--|


Intro/Verse:
               C                               G
e|-----------------------------|-----------------------------|
B|----------1---1-----1--------|----------1---1-----1--------|
G|------------0---0-----0---0--|------------0---0-----0---0--|
D|-----0h2----------2-----2----|------------------0-----0----|
A|--3--------------------------|-----0h2---------------------|
E|-----------------------------|--3--------------------------|

               F                               G
e|-----------------------------|-----------------------------|
B|--------------1-----1--------|----------1---1-----1--------|
G|-----0h2--2-----2-----2---2--|------------0---0-----0---0--|
D|-----3------3-----3-----3----|------------------0-----0----|
A|-----------------------------|-----0h2---------------------|
E|--1--------------------------|--3--------------------------|

C   C                               G
    Every time I see your smile it makes my heart beat fast. 
      F                                     G
And though it's much too soon to tell, I'm hoping this will last.
       C                              G
'Cause I just always wanna have you right here by my side. 
     F                                    G
The future's near, but never certain. At least stay here for just tonight.


Chorus:
   Am           G         F
I must've done something right to deserve you in my life.
   Am           G         F      G        C
I must've done something right along the way.
                C
e|-----------------------------|
B|----------1------------------|
G|--------------0-0---0-0---0--|
D|-----0h2----2-----2-----2----|
A|--3--------------------------|
E|-----------------------------|


Verse2:
   C                                   G
I just can't get you off my mind, and why would I even try?
F                              G
Even when I close my eyes, I dream about you all the time.
       C                             G 
'Cause I just always wanna have you right here by my side. 
     F                                    G
The future's near but never certain, so please stay here for just tonight.

Chorus:
   Am           G         F
I must've done something right to deserve you in my life.
   Am           G         F      G        C
I must've done something right along the way.

Bridge:
    Am           G                C    F
And even if the moon fell down tonight, 
            Am                G                       F           
There'd be nothing to worry about at all because you make the whole world shine. 
    Am                        G             C-B-Am-G-F--G
As long as you're here everything will be alright.

Chorus:
   Am           G         F
I must've done something right to deserve you in my life.
   Am           G         F      G        C   C
I must've done something right along the way.

:::::::::::::::::::::::::::::::::::::::::::::::::::::::::::::::::::::::::::::
kung may mali po, imessage niyo nlng po ako sa UG account ko: amiappreciated
please rate and comment:D
thank you:D
:::::::::::::::::::::::::::::::::::::::::::::::::::::::::::::::::::::::::::::

comments
print report bad tab
1 comment total.
0 reply
bryancastro wrote on April 24 2015, 12:23 am

I really like the way you made this, but I have a suggestion. In the bridge where he sings: "As long as you're here everything will be alright."

Instead of playing a B, I feel like playing a G would sound better, plus its easier to transition between the chords leading to the chorus.

I want to post or [tab]
guest
You may want to rate the tab now too:
select rating
Please do not post tabs as comments. Select "correction" instead!