Oops, an error
Loading. Please wait.

If The Moon Fell Down Tonight Tab

version 3
version 3

Whole song

774 views 1 this week
no commentswrite comment
1 2 3 4 5
please rate
add to favorites
launch autoscroll
font size
0
reset
how to read this tab
guitar tuner
Autoscroll
slow
fast
+/-
esc
set tempo
stop
Help us to improve Ultimate-Guitar.com Take our survey!
×
Author
Difficulty
Capo
intermediate
4th fret
this is just how i play it .... have fun 

Capo on 4th fret

Intro
e|------------------------|
B|---------1--1-----------|
G|----------0--0-0--------|
D|----0h2-2--2--2---------|
A|---3--------------------|
E|------------------------|

Verse 1
e|---------------------------------------------------------------------|
B|---------1--1--1----------1--1--1-------1--1--1--------1--1--1-------|
G|----------0--0--0----------0--0--0--0h2--2--2--0--------0--0--0------|
D|----0h2-2--2--2----------0--0--0-------3--3--3--------0--0--0--------|
A|---3-----------------0h2--------------------------0h2----------------|
E|--------------------3--------------1-------------3-------------------|
    Every time i     it makes my     even though   hoping this
    See your        heart beat fast its too soon   will last
    Smile                           too tell i'm
e|---------------------------------------------------------------------|
B|---------1--1--1----------1--1--1-------1--1--1--------1--1--1-------|
G|----------0--0--0----------0--0--0--0h2--2--2--0--------0--0--0------|
D|----0h2-2--2--2----------0--0--0-------3--3--3--------0--0--0--------|
A|---3-----------------0h2--------------------------0h2----------------|
E|--------------------3--------------1-------------3-------------------|
 'Cause I just     Right here      The future's   At least stay
Always wanna       by my side      near but        here for just
Have you                           never certain   tonight

Chorus
     AM  G    F         AM  G    F         C

e|-----0--------1-------0--------1----|-------0--0--0---|
B|----1---3p0--1--1----1---3p0--1--1--|-----1--1--1--1--|
G|----2---0----2----0--2---0----2----0|----0------------|
D|----2---0----3---3---2---0----3---3-|-0h2-----------2-|
A|--0----------------0----------------|3----------------|
E|------3----1-----------3----1-------|-----------------|
 I must|some |right|deserve|…my| Life     |
  Have |thing|  to | you in|   |          |(second time only)
  done |     |     |       |   |                              |
                    I must |som| right    |     
                    Have  |eth| along    |      Way.
                     done  |ing|   the    |
 [ Tab from: http://www.guitartabs.cc/tabs/c/chase_coy/if_the_moon_fell_down_tonight_tab.html ]
Verse 2
e|---------------------------------------------------------------------|
B|---------1--1--1----------1--1--1-------1--1--1--------1--1--1-------|
G|----------0--0--0----------0--0--0--0h2--2--2--0--------0--0--0------|
D|----0h2-2--2--2----------0--0--0-------3--3--3--------0--0--0--------|
A|---3-----------------0h2--------------------------0h2----------------|
E|--------------------3--------------1-------------3-------------------|
  I just can't get   and why would   Even when     I dream about
  you off my        I even try      I close my     you all the
   mind                              eyes          time
e|---------------------------------------------------------------------|
B|---------1--1--1----------1--1--1-------1--1--1--------1--1--1-------|
G|----------0--0--0----------0--0--0--0h2--2--2--0--------0--0--0------|
D|----0h2-2--2--2----------0--0--0-------3--3--3--------0--0--0--------|
A|---3-----------------0h2--------------------------0h2----------------|
E|--------------------3--------------1-------------3-------------------|

  I just always      Right here     The future's   So please
  Wanna have         by my side     near but       here for
   You                              never certain  just tonight




Chorus
     AM  G    F         AM  G    F         C


e|-----0--------1-------0--------1----|-------0--0--0---|
B|----1---3p0--1--1----1---3p0--1--1--|-----1--1--1--1--|
G|----2---0----2----0--2---0----2----0|----0------------|
D|----2---0----3---3---2---0----3---3-|-0h2-----------2-|
A|--0----------------0----------------|3----------------|
E|------3----1-----------3----1-------|-----------------|
 I must|some |right|deserve|my| Life     |
  Have |thing|  to | you in|   |          |(second time only)
  done |     |     |       |   |                              |
                    I must |som| right    |     
                    Have  |eth| along    |      Way.
                     done  |ing|   the    |


Bridge
AM              F              C
And even if the moon fell down tonight
AM                          F
There'd be nothing to worry about at all
C
Because you make the whole world shine
AM
As long as you're here
F                                C G AM G F G
Everything would be alright

Chorus
     AM  G    F         AM  G    F         C
e|-----0--------1-------0--------1----|-------0--0--0---|
B|----1---3p0--1--1----1---3p0--1--1--|-----1--1--1--1--|
G|----2---0----2----0--2---0----2----0|----0------------|
D|----2---0----3---3---2---0----3---3-|-0h2-----------2-|
A|--0----------------0----------------|3----------------|
E|------3----1-----------3----1-------|-----------------|
 I must|some |right|deserve|…my| Life     |
  Have |thing|  to | you in|   |          |(second time only)
  done |     |     |       |   |                              |
                    I must |som| right    |     
                    Have  |eth| along    |      Way.
                     done  |ing|   the    |

Outro
e|-----------------------|
B|---------1--1----------|
G|----------0--0---------|
D|----0h2-2--2--2--------|
A|---3-------------------|
E|-----------------------|x2
Suggest correction
Give kudos to tab author, rate the tab!
1 2 3 4 5
comments
print report bad tab
guest
You may want to rate the tab now too:
select rating
Please do not post tabs as comments. Select "correction" instead!