Oops, an error
Loading. Please wait.

Lullaby Tab

version 2
version 2

Whole song

Interactive

6,148 views 3 this week
no commentswrite comment
1 2 3 4 5
please rate
add to favorites
launch autoscroll
font size
0
reset
how to read this tab
guitar tuner
Autoscroll
slow
fast
+/-
esc
set tempo
stop
Help us to improve Ultimate-Guitar.com Take our survey!
×
Contributor
Difficulty
novice
This has been requested by a lot of people so i'm finally putting it out. Thanks 
everyone for listening to my music and watching my videos. i means a lot =]

You can see how these tabs sounds here:
http://www.youtube.com/watch?v=DBhkzQFl-jc


Verse
|----------|----------|----------|----------|
|------3---|------3---|------3---|------3---|
|--0-----0-|--2-----2-|--0-----0-|--2-----2-|
|----0-----|----0-----|----0-----|----0-----|
|----------|----------|----------|----------|
|--3-------|--2-------|--0-------|--2-------|

|----------|----------/
|------3---|------3---/
|--0-----0-|--0-----0-/
|----0-----|----0-----/
|--3-------|--2-------/
|----------|----------/


Verse Ending 1
/----------|----------|
/------1---|------3---|
/--0-----0-|--2-----2-| x3
/----0-----|----0-----|
/--0-------|----------|
/----------|--2-------|


Verse Ending 2/Pre-Chorus
/--------------|--------|
/------1-----1-|------2-|
/--0-------0---|----0---|x1
/----0---0-----|--------|
/--0-----------|--0-----|
/--------------|--------|



Chorus
|--3---3---3---3--|
|--3---3---3---3--|
|--0---0---0---2--|
|--2---0---2---0--|
|--3---2---2---0--|
|--X---3---X---2--|

|-3---3---3--3----3-3--5-5-|
|-3---3---3--3----3-3--4-4-|
|-0---0---0--2----0-0--0-0-|
|-2---0---2--0----2-2--X-X-|
|-3---2---2--0----3-3--2-2-|
|-X---3---X--2----X-X--X-X-|



Play in this order

Verse - Verse Ending 1   x3
Verse - Verse Ending 2   x1
Chorus                   x1
Verse - Verse Ending 1   x3
Verse - Verse Ending 2   x1
Chorus                   x1
comments
We did not receive enough feedback on this tab! Please rate:
print report bad tab
1 2 3 4 5
I want to post or [tab]
guest
You may want to rate the tab now too:
select rating
Please do not post tabs as comments. Select "correction" instead!