Oops, an error
Loading. Please wait.

Lullaby Tab

version 3
version 3

Whole song

Interactive

6,115 views 3 this week
no commentswrite comment
1 2 3 4 5
excellent!
x 3
add to favorites
launch autoscroll
font size
0
reset
how to read this tab
guitar tuner
Tab Pro tools
  • play this tab
  • loop segment
  • change instrument
  • show fretboard
  • metronome
×
Best way to learn
"Lullaby"
Autoscroll
slow
fast
+/-
esc
set tempo
stop
Difficulty
novice
Title: Lullaby
Artist: Chase Coy
Tabbed by: Weston Leavitt

The timing is a little tricky so i added lyrics thats match up with when you are 
supposed to sing! good luck! 

|----------|----------|----------|----------|
|------3---|------3---|------3---|------3---|
|--0-----0-|--2-----2-|--0-----0-|--2-----2-|
|----0-----|----0-----|----0-----|----0-----|
|----------|----------|----------|----------|
|--3-------|--2-------|--0-------|--2-------|

|----------|----------|----------|----------|
|------3---|------3---|------1---|------3---|
|--0-----0-|--0-----0-|--0-------|--2-----2-|
|----0-----|----0-----|----0-----|----0-----|
|--3-------|--2-------|--0-------|----------|
|----------|----------|----------|--2-------|

|----------|----------|----------|----------|
|------3---|------3---|------3---|------3---|
|--0-----0-|--2-----2-|--0-----0-|--2-----2-|
|----0-----|----0-----|----0-----|----0-----|
|----------|----------|----------|----------|
|--3-------|--2-------|--0-------|--2-------|
                You can rest easy        To -
|----------|----------|----------|----------|
|------3---|------3---|------1---|------3---|
|--0-----0-|--0-----0-|--0-------|--2-----2-|
|----0-----|----0-----|----0-----|----0-----|
|--3-------|--2-------|--0-------|----------|
|----------|----------|----------|--2-------|
   Night.
|----------|----------|----------|----------|
|------3---|------3---|------3---|------3---|
|--0-----0-|--2-----2-|--0-----0-|--2-----2-|
|----0-----|----0-----|----0-----|----0-----|
|----------|----------|----------|----------|
|--3-------|--2-------|--0-------|--2-------|
      Everything is gonna be       al-
|----------|----------|----------|----------|
|------3---|------3---|------1---|------3---|
|--0-----0-|--0-----0-|--0-------|--2-----2-|
|----0-----|----0-----|----0-----|----0-----|
|--3-------|--2-------|--0-------|----------|
|----------|----------|----------|--2-------|
 right     I promise.
|----------|----------|----------|----------|
|------3---|------3---|------3---|------3---|
|--0-----0-|--2-----2-|--0-----0-|--2-----2-|
|----0-----|----0-----|----0-----|----0-----|
|----------|----------|----------|----------|
|--3-------|--2-------|--0-------|--2-------|
      Go to sleep and dream of me       to-
|----------|----------|----------|----------|
|------3---|------3---|------1---|------3---|
|--0-----0-|--0-----0-|--0-------|--2-----2-|
|----0-----|----0-----|----0-----|----0-----|
|--3-------|--2-------|--0-------|----------|
|----------|----------|----------|--2-------|
 Night

|----------|----------|----------|----------|
|------3---|------3---|------3---|------3---|
|--0-----0-|--2-----2-|--0-----0-|--2-----2-|
|----0-----|----0-----|----0-----|----0-----|
|----------|----------|----------|----------|
|--3-------|--2-------|--0-------|--2-------|
    Everything may not be perfect but at least
|----------|----------|-------------------------------|
|------3---|------3---|------1-------1--------2-------|
|--0-----0-|--0-----0-|--0--------0--------0----------|
|----0-----|----0-----|----0----0--------0------------|
|--3-------|--2-------|--0----------------------------|
|----------|----------|-------------------------------|
 we tried                              so tonight
|-------------3--------------3--------------3-----------------3--------|
|-------------3--------------3--------------3-----------------3--------|
|-------------0--------------0--------------0-----------------2--------|
|-------------2--------------0--------------2-----------------0--------|
|-------------3--------------2--------------2-----------------0--------|
|-------------X--------------3--------------X-----------------2--------|
     Sweet dreams    sleep tight   ive been trying so hard to get you out of my mind
|------3----------------------3---------------------------------3---------3-|
|------3----------------------3---------------------------------3---------3-|
|------0----------------------0---------------------------------0---------2-|
|------2----------------------0---------------------------------2---------0-|
|------3----------------------2---------------------------------2---------0-|
|------X----------------------3---------------------------------X---------2-|
And if this is how it has to be just promise you wont forget me, and ill leave you
|------------3-X-3---------5-X-5-----|
|------------3-X-3---------4-X-4-----|
|------------0-X-0---------0-X-0-----|
|------------2-X-2---------X-X-X-----|
|------------3-X-3---------2-X-2-----|
|------------X-X-X---------X-X-X-----|
With this lullaby        tonight
|----------|----------|----------|----------|
|------3---|------3---|------3---|------3---|
|--0-----0-|--2-----2-|--0-----0-|--2-----2-|
|----0-----|----0-----|----0-----|----0-----|
|----------|----------|----------|----------|
|--3-------|--2-------|--0-------|--2-------|
(Violin accompaniment . . . )
|----------|----------|----------|----------|
|------3---|------3---|------1---|------3---|
|--0-----0-|--0-----0-|--0-------|--2-----2-|
|----0-----|----0-----|----0-----|----0-----|
|--3-------|--2-------|--0-------|----------|
|----------|----------|----------|--2-------|
(Violin accompaniment . . . )
|----------|----------|----------|----------|
|------3---|------3---|------3---|------3---|
|--0-----0-|--2-----2-|--0-----0-|--2-----2-|
|----0-----|----0-----|----0-----|----0-----|
|----------|----------|----------|----------|
|--3-------|--2-------|--0-------|--2-------|
(Violin accompaniment . . . )
|----------|----------|----------|----------|
|------3---|------3---|------1---|------3---|
|--0-----0-|--0-----0-|--0-------|--2-----2-|
|----0-----|----0-----|----0-----|----0-----|
|--3-------|--2-------|--0-------|----------|
|----------|----------|----------|--2-------|
(Violin accompaniment . . . )
|----------|----------|----------|----------|
|------3---|------3---|------3---|------3---|
|--0-----0-|--2-----2-|--0-----0-|--2-----2-|
|----0-----|----0-----|----0-----|----0-----|
|----------|----------|----------|----------|
|--3-------|--2-------|--0-------|--2-------|
           I know that this hurts you  it hurts
|----------|----------|----------|----------|
|------3---|------3---|------1---|------3---|
|--0-----0-|--0-----0-|--0-------|--2-----2-|
|----0-----|----0-----|----0-----|----0-----|
|--3-------|--2-------|--0-------|----------|
|----------|----------|----------|--2-------|
Me   too                                    
|----------|----------|----------|----------|
|------3---|------3---|------3---|------3---|
|--0-----0-|--2-----2-|--0-----0-|--2-----2-|
|----0-----|----0-----|----0-----|----0-----|
|----------|----------|----------|----------|
|--3-------|--2-------|--0-------|--2-------|
I wish there was something I could do          to make it 
|----------|----------|----------|----------|
|------3---|------3---|------1---|------3---|
|--0-----0-|--0-----0-|--0-------|--2-----2-|
|----0-----|----0-----|----0-----|----0-----|
|--3-------|--2-------|--0-------|----------|
|----------|----------|----------|--2-------|
     Easier   for     you
|----------|----------|----------|----------|
|------3---|------3---|------3---|------3---|
|--0-----0-|--2-----2-|--0-----0-|--2-----2-|
|----0-----|----0-----|----0-----|----0-----|
|----------|----------|----------|----------|
|--3-------|--2-------|--0-------|--2-------|
      Sometimes it tough,  too soon to call it love
|----------|----------|----------|----------|
|------3---|------3---|------1---|------3---|
|--0-----0-|--0-----0-|--0-------|--2-----2-|
|----0-----|----0-----|----0-----|----0-----|
|--3-------|--2-------|--0-------|----------|
|----------|----------|----------|--2-------|
But I wanted to, yeah  I  wanted  to
|----------|----------|----------|----------|
|------3---|------3---|------3---|------3---|
|--0-----0-|--2-----2-|--0-----0-|--2-----2-|
|----0-----|----0-----|----0-----|----0-----|
|----------|----------|----------|----------|
|--3-------|--2-------|--0-------|--2-------|
But its too late now to say all the wonderful things that I thought of you
|----------|----------|-------------------------------|
|------3---|------3---|------1-------1--------2-------|
|--0-----0-|--0-----0-|--0--------0--------0----------|
|----0-----|----0-----|----0----0--------0------0-----|
|--3-------|--2-------|--0----------------------------|
|----------|----------|-------------------------------|
                                      so tonight
|-------------3--------------3--------------3-----------------3--------|
|-------------3--------------3--------------3-----------------3--------|
|-------------0--------------0--------------0-----------------2--------|
|-------------2--------------0--------------2-----------------0--------|
|-------------3--------------2--------------2-----------------0--------|
|-------------X--------------3--------------X-----------------2--------|
     Sweet dreams and sleep tight  ive been trying so hard to get you out of my mind
|------3----------------------3---------------------------------3---------3-|
|------3----------------------3---------------------------------3---------3-|
|------0----------------------0---------------------------------0---------2-|
|------2----------------------0---------------------------------2---------0-|
|------3----------------------2---------------------------------2---------0-|
|------X----------------------3---------------------------------X---------2-|
And if this is how it has to be just promise you wont forget me, and ill leave you
|------------3-X-3---------5-X-5-----|
|------------3-X-3---------4-X-4-----|
|------------0-X-0---------0-X-0-----|
|------------2-X-2---------X-X-X-----|
|------------3-X-3---------2-X-2-----|
|------------X-X-X---------X-X-X-----|
With this lullaby        tonight

(Slow and faded)
|----------|----------|----------|----------|
|------3---|------3---|------3---|------3---|
|--0-----0-|--2-----2-|--0-----0-|--2-----2-|
|----0-----|----0-----|----0-----|----0-----|
|----------|----------|----------|----------|
|--3-------|--2-------|--0-------|--2-------|
(Violin accompaniment . . . )
|----------|----------|----------|----------|-------|
|------3---|------3---|------1---|------3---|-------|
|--0-----0-|--0-----0-|--0-------|--2-----2-|---3~~~|
|----0-----|----0-----|----0-----|----0-----|---0~~~|
|--3-------|--2-------|--0-------|----------|---2~~~|
|----------|----------|----------|--2-------|---3~~~|
(Violin accompaniment . . . )                             (let the final chord ring)


Cheers!
comments
We did not receive enough feedback on this tab! Please rate:
print report bad tab
1 2 3 4 5
I want to post or [tab]
guest
You may want to rate the tab now too:
select rating
Please do not post tabs as comments. Select "correction" instead!