Oops, an error
Loading. Please wait.

Mockingbird Tab

version 2
version 2

Whole song

2,242 views 1 this week
no commentswrite comment
1 2 3 4 5
1 last vote to show rating
add to favorites
launch autoscroll
font size
0
reset
how to read this tab
guitar tuner
Autoscroll
slow
fast
+/-
esc
set tempo
stop
Help us to improve Ultimate-Guitar.com Take our survey!
×
Difficulty
intermediate
Tabbed by Nicole Mikulis

INTRO x2
E---------------------------------------------|
B-----------------------0-----0----3-----3----|
G----2----2---0-----0-------------------------|
D---------------------------------------------|
A---------------------------------------------|
E----3--3--3--3---3--3--3---3---3--3---3--3---|

E---------------------------------------------|
B-----------------------0-----0----3-----3----|
G----2----2---0-----0-------------------------|
D---------------------------------------------|
A----3--3--3--3---3--3--3---3---3--3---3--3---|
E---------------------------------------------|

VERSE 1
E---------------------------------------------|
B-----------------------0-----0----3-----3----|
G----2----2---0-----0-------------------------|
D---------------------------------------------|
A---------------------------------------------|
E----3--3--3--3---3--3--3---3---3--3---3--3---|
Summer arrived on the back of a Mockingbird it

E---------------------------------------------|
B-----------------------0-----0----3-----3----|
G----2----2---0-----0-------------------------|
D---------------------------------------------|
A----3--3--3--3---3--3--3---3---3--3---3--3---|
E---------------------------------------------|
Sang a sweet melody but couldn't seem to find the right

E---------------------------------------------|
B-----------------------0-----0----3-----3----|
G----2----2---0-----0-------------------------|
D---------------------------------------------|
A---------------------------------------------|
E----3--3--3--3---3--3--3---3---3--3---3--3---|
Words, I don't know if you've heard but it's 

E---------------------------------------------|
B-----------------------0-----0----3-----3----|
G----2----2---0-----0-------------------------|
D---------------------------------------------|
A----3--3--3--3---3--3--3---3---3--3---3--3---|
E---------------------------------------------|
All over town ya they're buzzing about it 

BRIDGE
E---------------------------------------------|
B-----------------------0-----0----3-----3----|
G----2----2---0-----0-------------------------|
D---------------------------------------------|
A---------------------------------------------|
E----3--3--3--3---3--3--3---3---3--3---3--3---|
Now.

E---------------------------------------------|
B-----------------------0-----0----3-----3----|
G----2----2---0-----0-------------------------|
D---------------------------------------------|
A----3--3--3--3---3--3--3---3---3--3---3--3---|
E---------------------------------------------|

E---------------------------------------------|
B-----------------------0-----0----3-----3----|
G----2----2---0-----0-------------------------|
D---------------------------------------------|
A---------------------------------------------|
E----3--3--3--3---3--3--3---3---3--3---3--3---|

E---------------------------------------------|
B-----------------------0-----0----3-----3----|
G----2----2---0-----0-------------------------|
D---------------------------------------------|
A----3--3--3--3---3--3--3---3---3--3---3--3---|
E---------------------------------------------|

VERSE 2
E---------------------------------------------|
B-----------------------0-----0----3-----3----|
G----2----2---0-----0-------------------------|
D---------------------------------------------|
A---------------------------------------------|
E----3--3--3--3---3--3--3---3---3--3---3--3---|
I was singing a song when the Mockingbird came to me

E---------------------------------------------|
B-----------------------0-----0----3-----3----|
G----2----2---0-----0-------------------------|
D---------------------------------------------|
A----3--3--3--3---3--3--3---3---3--3---3--3---|
E---------------------------------------------|
Perched on my windowsill and hummed along quietly

E---------------------------------------------|
B-----------------------0-----0----3-----3----|
G----2----2---0-----0-------------------------|
D---------------------------------------------|
A---------------------------------------------|
E----3--3--3--3---3--3--3---3---3--3---3--3---|
But before long she was singing along and she

E---------------------------------------------|
B-----------------------0-----0----3-----3----|
G----2----2---0-----0-------------------------|
D---------------------------------------------|
A----3--3--3--3---3--3--3---3---3--3---3--3---|
E---------------------------------------------|
Said, yes she said: 

CHORUS
                              D                  G
E----------3------------------2------------------3---------------------------|
B----------3------------------3------------------0---------------------------|
G----------0------------------2------------------0---------------------------|
D----------2------------------0------------------0---------------------------|
A----------2------------------0------------------2---------------------------|
E----------0------------------0------------------3---------------------------|
I've been waiting so long for these words to come out, it's practically all I've
been thinking about.
                              D                  G
E----------3------------------2------------------3---------------------------|
B----------3------------------3------------------0---------------------------|
G----------0------------------2------------------0---------------------------|
D----------2------------------0------------------0---------------------------|
A----------2------------------0------------------2---------------------------|
E----------0------------------0------------------3---------------------------|
So thank you for finding the words I couldn't find on my own, now I'm not alone.

The last verse is played the same as verses 1&2
The ending is the chorus

If you have any questions, comments or adjustments, please e-mail nicole.m.11@hotmail.com 
Suggest correction
Give kudos to tab author, rate the tab!
1 2 3 4 5
comments
print report bad tab
guest
You may want to rate the tab now too:
select rating
Wanna post a correction for this tab? Suggest correction