Oops, an error
Loading. Please wait.

Never Change Tab

version 1
version 1

Whole song

Interactive

22,512 views 9 this week
3 commentsread comments
1 2 3 4 5
x 3
add to favorites
launch autoscroll
font size
0
reset
how to read this tab
guitar tuner
×
Best way to learn
"Never Change"
Autoscroll
slow
fast
+/-
esc
set tempo
stop
Author
Difficulty
Okay so this is my very first tab and the timing is probably way off but you'll get the gist.
This song is played with a capo on the second fret, but I like to go ahead and play it 
the
third...That's just me. I hope you enjoy.

Intro
e|----3---3-------------3---3---3--------3--------3--------1---1---1---------|
B|------3---3-3---3-------3---3---3-3------3-3------3-3------3---3---3-3-----|
G|---0---0---0-----0---0---0---0---0----0---0----0---0----0---0---0---0------|
D|------------------------------------3--------2--------0--------------------|
A|-3------------2----0-------------------------------------------------------|
E|---------------------------------------------------------------------------|

Verse 1
"If you hear this wherever you are..."
e|----3---3-------------3---3---3--------3--------3--------1---1---1---------|
B|------3---3-3---3-------3---3---3-3------3-3------3-3------3---3---3-3-----|
G|---0---0---0-----0---0---0---0---0----0---0----0---0----0---0---0---0------|
D|------------------------------------3--------2--------0--------------------|
A|-3------------2----0-------------------------------------------------------|
E|---------------------------------------------------------------------------|

"You were brighter than the pale white moon..."
e|----3---3-------------3---3---3--------3--------3--------1---1---1---------|
B|------3---3-3---3-------3---3---3-3------3-3------3-3------3---3---3-3-----|
G|---0---0---0-----0---0---0---0---0----0---0----0---0----0---0---0---0------|
D|------------------------------------3--------2--------0--------------------|
A|-3------------2----0-------------------------------------------------------|
E|---------------------------------------------------------------------------|

e|----2---2---2--------------------------------------------------------------|
B|------3---3---3-3----------------------------------------------------------|
G|---0---0---0---0-----------------------------------------------------------|
D|-0-------------------------------------------------------------------------|
A|---------------------------------------------------------------------------|
E|---------------------------------------------------------------------------|

Chorus 1
"I will always carry you in my heart..."
e|----3--------3--------3--------3--------3--------3--------3--------3-------|
B|------3-3------3-3------3-3------3-3------3-3------3-3------3-3------3-3---|
G|---0---0----0---0----0---0----0---0----0---0----0---0----0---0----0---0----|
D|-------------------------------------3--------2----------------------------|
A|-3--------2--------0--------2--------------------------0--------2----------|
E|---------------------------------------------------------------------------|

"Autumn days will fade away..."
e|----3--------3--------3--------3--------3--------3--------3--------3-------|
B|------3-3------3-3------3-3------3-3------3-3------3-3------3-3------3-3---|
G|---0---0----0---0----0---0----0---0----0---0----0---0----0---0----0---0----|
D|-------------------------------------3--------2----------------------------|
A|-3--------2--------0--------2--------------------------0--------2----------|
E|---------------------------------------------------------------------------|

Post-Chorus
e|----3---3-------------3---3---3--------3--------3--------1---1---1---------|
B|------3---3-3---3-------3---3---3-3------3-3------3-3------3---3---3-3-----|
G|---0---0---0-----0---0---0---0---0----0---0----0---0----0---0---0---0------|
D|------------------------------------3--------2--------0--------------------|
A|-3------------2----0-------------------------------------------------------|
E|---------------------------------------------------------------------------|

Verse 2
"I just need to slow down for a while..."
e|----3---3-------------3---3---3--------3--------3--------1---1---1--------|
B|------3---3-3---3-------3---3---3-3------3-3------3-3------3---3---3-3----|
G|---0---0---0-----0---0---0---0---0----0---0----0---0----0---0---0---0-----|
D|------------------------------------3--------2--------0-------------------|
A|-3------------2----0------------------------------------------------------|
E|--------------------------------------------------------------------------|

"Stay with me until the daylight breaks..."
e|----3---3-------------3---3---3--------3--------3--------1---1---1--------|
B|------3---3-3---3-------3---3---3-3------3-3------3-3------3---3---3-3----|
G|---0---0---0-----0---0---0---0---0----0---0----0---0----0---0---0---0-----|
D|------------------------------------3--------2--------0-------------------|
A|-3------------2----0------------------------------------------------------|
E|--------------------------------------------------------------------------|

e|----2---2---2--------------------------------------------------------------|
B|------3---3---3-3----------------------------------------------------------|
G|---0---0---0---0-----------------------------------------------------------|
D|-0-------------------------------------------------------------------------|
A|---------------------------------------------------------------------------|
E|---------------------------------------------------------------------------|

Chorus 2
"I will always carry you in my heart..."
e|----3--------3--------3--------3--------3--------3--------3--------3-------|
B|------3-3------3-3------3-3------3-3------3-3------3-3------3-3------3-3---|
G|---0---0----0---0----0---0----0---0----0---0----0---0----0---0----0---0----|
D|-------------------------------------3--------2----------------------------|
A|-3--------2--------0--------2--------------------------0--------2----------|
E|---------------------------------------------------------------------------|

"Autumn days will fade away..."
e|----3--------3--------3--------3--------3--------3--------3--------3-------|
B|------3-3------3-3------3-3------3-3------3-3------3-3------3-3------3-3---|
G|---0---0----0---0----0---0----0---0----0---0----0---0----0---0----0---0----|
D|-------------------------------------3--------2----------------------------|
A|-3--------2--------0--------2--------------------------0--------2----------|
E|---------------------------------------------------------------------------|

Ending
e|-3-|
B|-3-|
G|-0-|*Strum
D|-2-|
A|-3-|
E|---|
Suggest correction
Give kudos to tab author, rate the tab!
1 2 3 4 5
comments
print report bad tab
3 comments total.
0 reply
Fuzzypandabear 41 Mar 04, 2010 07:01 PM

Chorus
"I will always carry you in my heart..."

e|-----3------------3-----------3---------3-------
B|-------3----3-------3---3-------3---------3---3-
G|---0-----0------0-----0-----0-----0---0-----0---
D|------------------------------------------------
A|-3------------2-----------0---------2-----------
E|------------------------------------------------

Repeat this 3 more times for the chorus. So sorry about the mistake ><

Also,

Ending
e|-3-|
B|-3-|
G|-0-|*Strum
D|---|
A|-x-|
E|-3-|

0 reply
Fuzzypandabear 41 Mar 04, 2010 07:03 PM

omg lol >< sorry @_@

Ending
e|-3-|
B|-3-|
G|-0-|*Strum
D|-0-|
A|-x-|
E|-3-|

0 reply
Mysterk94 72 Jun 09, 2011 05:26 PM

I think the intro and verse sounds more like this:

e|----3---3---------3---3---3---3--------3--------3--------1---1---1---------|
B|------1---1-1---3-------1---1---1-1------1-1------1-1------3---3---3-3-----|
G|---0---0---0---------0---0---0---0----0---0----0---0----2---2---2---2------|
D|------------------------------------3--------2--------0--------------------|
A|-3------------2----0-------------------------------------------------------|
E|---------------------------------------------------------------------------|

It's an okay tab, but I give you kudos, as you're the only one who posted one.

guest
You may want to rate the tab now too:
select rating
Wanna post a correction for this tab? Suggest correction