Oops, an error
Loading. Please wait.

Never Change Tab

version 2
version 2

Whole song

Interactive

1,031 views 1 this week
no commentswrite comment
1 2 3 4 5
please rate
add to favorites
launch autoscroll
font size
0
reset
how to read this tab
guitar tuner
Autoscroll
slow
fast
+/-
esc
set tempo
stop
Help us to improve Ultimate-Guitar.com Take our survey!
×
Contributor
Difficulty
Capo
novice
2nd fret
-------------------------------------------------------------------------------
                        NEVER CHANGE - Chase Coy
-------------------------------------------------------------------------------
Tabbed by: Mysterk94
Email: khughes94@hotmail.com

Tuning: Standard (EADGBE) with a capo on the 2nd fret.

Intro:
e|----3---3-------3---3---3---3---3---3-------3-------1---1---1-----|
B|------1---1-1--3------1---1---1-------1-1-----1-1-----3---3---3-3-|
G|---0---0---0-------0---0---0---0---0---0---0---0---2---2---2---2--|
D|---------------------------------3-------2-------0----------------|
A|-3-----------2---0------------------------------------------------|
E|------------------------------------------------------------------|

Verse 1:

e|----3---3-------3---3---3---3---3---3-------3-------1---1---1-----|
B|------1---1-1--3------1---1---1-------1-1-----1-1-----3---3---3-3-|
G|---0---0---0-------0---0---0---0---0---0---0---0---2---2---2---2--|
D|---------------------------------3-------2-------0----------------|
A|-3-----------2---0------------------------------------------------|
E|------------------------------------------------------------------|

e|----3---3-------3---3---3---3---3---3-------3-------1---1---1-----|
B|------1---1-1--3------1---1---1-------1-1-----1-1-----3---3---3-3-|
G|---0---0---0-------0---0---0---0---0---0---0---0---2---2---2---2--|
D|---------------------------------3-------2-------0----------------|
A|-3-----------2---0------------------------------------------------|
E|------------------------------------------------------------------|

Pre-Chorus:

e|----2---2---2-----|
B|------1---1---1-1-|
G|---2---2---2---2--|
D|-0----------------|
A|------------------|
E|------------------|

Chorus:

e|----3--------3-------3-------3-----| \
B|------1-1------1-1-----1-1-----1-1-|  \
G|---0---3----0---0---0---0---0---0--|   \Play 4x
D|-3---------------------------------|   /
A|---------3--------0-------2--------|  /
E|-----------------------------------| /

e|----3---3-------3---3---3---3---3---3-------3-------1---1---1-----|
B|------1---1-1--3------1---1---1-------1-1-----1-1-----3---3---3-3-|
G|---0---0---0-------0---0---0---0---0---0---0---0---2---2---2---2--|
D|---------------------------------3-------2-------0----------------|
A|-3-----------2---0------------------------------------------------|
E|------------------------------------------------------------------|

Verse 2:


e|----3---3-------3---3---3---3---3---3-------3-------1---1---1-----|
B|------1---1-1--3------1---1---1-------1-1-----1-1-----3---3---3-3-|
G|---0---0---0-------0---0---0---0---0---0---0---0---2---2---2---2--|
D|---------------------------------3-------2-------0----------------|
A|-3-----------2---0------------------------------------------------|
E|------------------------------------------------------------------|

e|----3---3-------3---3---3---3---3---3-------3-------1---1---1-----|
B|------1---1-1--3------1---1---1-------1-1-----1-1-----3---3---3-3-|
G|---0---0---0-------0---0---0---0---0---0---0---0---2---2---2---2--|
D|---------------------------------3-------2-------0----------------|
A|-3-----------2---0------------------------------------------------|
E|------------------------------------------------------------------|

Pre-Chorus 2:

e|----2---2---2-----|
B|------1---1---1-1-|
G|---2---2---2---2--|
D|-0----------------|
A|------------------|
E|------------------|

Chorus 2:


***e|----3--------3-------3-------3-----| \
   B|------1-1------1-1-----1-1-----1-1-|  \
   G|---0---3----0---0---0---0---0---0--|   \Play 4x
   D|-3---------------------------------|   /
   A|---------3--------0-------2--------|  /
   E|-----------------------------------| /

Outro:

e|-3-|
B|-1-|
G|-0-|
D|-2-|
A|-3-|
E|---|


:READ THIS:
***This way to play Chorus 2 is just the normal chorus and is the same as the first one.
However, in the recorded version, it sounds like this:

e|----10--------3-------3-------3-----|
B|-------1-1------1-1-----1-1-----1-1-|
G|---0----3----0---0---0---0---0---0--|
D|-3----------------------------------|
A|----------3--------0-------2--------|
E|------------------------------------|

The difference between the two is the 3rd note that is played.
Instead of the A (5th fret on the e string, not counting the capo) being played, 
Chase Coy somehow throws a
high D in there, which can be found on the 10th fret of the e string, not counting the capo.
The section above with the D instead of the A is technically the correct way to 
play it exactly like the song,
but I just don't see it as practical at all, so I would suggest using the original 
version in the tab.

Well, this should be it. I'm pretty sure this is completely correct, but let me 
know if I missed anything.
Suggest correction new What's this?
You can suggest a correction to this tab. Community and Mods will review your correction and vote to approve or reject it.
comments
We did not receive enough feedback on this tab! Please rate:
print report bad tab
1 2 3 4 5
guest
You may want to rate the tab now too:
select rating
Please do not post tabs as comments. Select "correction" instead!