Oops, an error
Loading. Please wait.

Never Change Tab

version 3
version 3

Whole song

Interactive

607 views 3 this week
1 commentread comment
1 2 3 4 5
please rate
add to favorites
launch autoscroll
font size
0
reset
how to read this tab
guitar tuner
Autoscroll
slow
fast
+/-
esc
set tempo
stop
Help us to improve Ultimate-Guitar.com Take our survey!
×
Difficulty
Capo
novice
2nd fret
Hey guys this is my first Tab but as i was looking through the Never Change tabs i 
noticed a few errors.. Still CAPO 2ND but here's how i hear it. Pretty sure this is 100% right.

CAPO 2ND

Intro/ Verses
e:-----3---3-----------3---3---3--------3------3------1---1---1----------]
B:------1---1-1---1-----1---1---1-1------1-1----1-1----1---1---1-1-------]
G:----0--0---0---0----0--0---0---0-----0--0---0--0---0--0---0---0--------]
D:-----------------------------------3-------2------0--------------------]x3
A:---3----------2---0----------------------------------------------------]
E:-----------------------------------------------------------------------]

Interlude
e:----2---2---2--------]
B:-----1---1---1-1-----]
G:---0--2---2---2------]
D:--0------------------]
A:---------------------]
E:---------------------]

Chorus
e:----3------3------3-----3--------]
B:-----1-1----1-1----1-1---1-1-----]
G:---0--0---0--0---0--0-----0------]x4
D:--3------2-----------------------]
A:----------------0------2---------]
E:---------------------------------]

repeat all of this again then end with..

e:--------]
B:--------]
G:---0~---]
D:---2~---]
A:---3~---]
E:--------]

Just a few extra notes: The second time through on the chorus there is an optional '9' 
on the 'e' so it looks like this:

e:----9--3----|
B:----------1-|
G:---0-----0--|
D:--3---------|
A:------------|
E:------------|

Then just keep playing the chorus normally till the end! Please Rate and Comments are appreciated!
Suggest correction
Give kudos to tab author, rate the tab!
1 2 3 4 5
comments
print report bad tab
1 comment total.
0 reply
jkjk354 15 wrote on July 8 2013, 06:55 pm

there is and open D on the end of the Chorus i think

guest
You may want to rate the tab now too:
select rating
Wanna post a correction for this tab? Suggest correction