Oops, an error
Loading. Please wait.

Never Had The Courage Tab

version 2
version 2

Whole song

10,328 views 3 this week
1 commentread comment
1 2 3 4 5
excellent!
x 5
add to favorites
launch autoscroll
font size
0
reset
how to read this tab
guitar tuner
Autoscroll
slow
fast
+/-
esc
set tempo
stop
Help us to improve Ultimate-Guitar.com Take our survey!
×
Author
Difficulty
Capo
novice
2nd fret
-------------------------------------------------------------------------------
                             NEVER HAD THE COURAGE - Chase Coy
-------------------------------------------------------------------------------
Tabbed by: BewareOfColbert
Email: http://www.youtube.com/user/JustUntilSundownBand

Tuning: Standard-EADGBE

I tabbed this out all by ear. It is NOT 100%! But it will do. I assure you. Here 
is a vid of me playing the song:
http://www.youtube.com/watch?v=iY3RRzcriXI

Capo 2 (Tabbed relative to capo)

Intro (Same as verses and little breaks in between said verses)
(I've dialed your number...Hoping just to hear your voice...): 
e|---------------------------------------------------------------------------|
B|-5--------3--------1--------0--------1-------1--------0--------0-----------|
G|---0---0----0---0----0---0----0---0----0---0---0---0-----0---0---0---0-----|
D|-----2--------0--------0--------0--------0-------0---------0-------0-------|
A|-3--------2--------0-------------------------------------------------------|
E|----------------------------3--------1-----------------3-------------------|

("I've never had the courage" (Repeat for "to finally make that call",
every "I've never had the courage", "To tell you how I feel" and 
"to tell you this before")):

e|---------------------------------------------------------------------------|
B|-5--------3--------1-------1-----------------------------------------------|
G|---0---0----0---0----0---0---0---0-----------------------------------------|
D|-----0--------0--------0-------0-------------------------------------------|
A|-3--------2--------0-------------------------------------------------------|
E|---------------------------------------------------------------------------|

Bridge (Stop repeating at "Every breath...):
e|---------------------------------------------------------------------------|
B|-5--------5-------3-------3-------1-------1-------0-------0----------------|
G|---0---0----0---0---0---0---0---0---0---0---0---0---0---0---0---0----------|
D|-----0--------0-------0-------0-------0-------0-------0-------0------------|
A|-3----------------2--------------------------------------------------------|
E|----------------------------------1---------------3------------------------|

(Every breath I take I pray you'll find)
e|---------------------------------------------------------------------------|
B|-5--------3--------1--------0--------1-------1--------1--------------------|
G|---0---0----0---0----0---0----0---0----0---0---0---0-----------------------|
D|-----2--------0--------0--------0--------0-------0-------------------------|
A|-3--------2--------0-------------------------------------------------------|
E|----------------------------3--------1----------------1--------------------|


(I'm the boy...)
e|---------------------------------------------------------------------------|
B|-5--------3--------1--------0--------1-------1--------0--------0-----------|
G|---0---0----0---0----0---0----0---0----0---0---0---0-----0---0---0---0-----|
D|-----2--------0--------0--------0--------0-------0---------0-------0-------|
A|-3--------2--------0-------------------------------------------------------|
E|----------------------------3--------1-----------------3-------------------|

Ending (Every day away from you...):
e|---------------------------------------------------------------------------|
B|-5--------3--------1--------0--------1-------0---------1-------------------|
G|---0---0----0---0----0---0----0---0----0---0---0---0---0-------------------|
D|-----2--------0--------0--------0--------0-------0-----2-------------------|
A|-3--------2--------0-----------------------------------3-------------------|
E|----------------------------3--------1-------3-----------------------------|

Please feel free to add and/or fix anything you deem fit. Watch the video for
a visual. Have fun! 




Good luck, Aaron.






| /  slide up
| \  slide down
| h  hammer-on
| p  pull-off
| ~  vibrato
| +  harmonic
| x  Mute note
===============================================================================
Suggest correction
What's this?
You can suggest a correction to this tab. Community and Mods will review your correction and vote to approve or reject it.
comments
print report bad tab
1 comment total.
0 reply
ILL.Guitarist 11 wrote on September 7 2009, 01:08 pm

Hey, can you re-write the whole thing with all te lyrics on it and like where everything iss?

guest
You may want to rate the tab now too:
select rating
Please do not post tabs as comments. Select "correction" instead!