Oops, an error
Loading. Please wait.

Never Had The Courage Tab

version 3
version 3

Whole song

3,730 views 1 this week
no commentswrite comment
1 2 3 4 5
please rate
add to favorites
launch autoscroll
font size
0
reset
how to read this tab
guitar tuner
Autoscroll
slow
fast
+/-
esc
set tempo
stop
Help us to improve Ultimate-Guitar.com Take our survey!
×
Author
Difficulty
intermediate
----------------------------------------------------------------------------
                   Never Had The Courage - Chase Coy
----------------------------------------------------------------------------

Tabbed by: Zac Westdyke
Email: zacwestmx@yahoo.com


Tuning: Standard

Song Progression:
INTRO
VERSE
CHORUS
VERSE
CHORUS
INSTRUMENTAL BREAK THING (VERSE)
SPECIAL VERSE (sorry I didnt feel like tabbing this part)
CHORUS


I tabbed out the bulk of the song, and it sounds pretty accurate to me.
Maybe someone else will feel up to doing the part I left out, or I'll
eventually get to it.
If you think anything sounds better differently leave a comment
and let me know
Thanks and enjoy

INTRO/VERSE:
e|--2-----2--0-----0-------------------------------------------------------|
B|--------------------3-----3--2-----2--0-----0-----0----2-----2-----2-----|
G|------2--------2--------2--------2--------2-----2---2------2-----2-------|
D|--0-0--------0--------0--------0--------0-----0----------0-----0------X3-|
A|-----------4--------2--------0-------------------------0-----------------|
E|--------------------------------------3----------------------------------|


CHORUS:
e|-------------------------------------------||--------------------|
B|---3-----3--2-----2--0-----0-----0---------||--2-----2-----2-----|
G|-------2--------2--------2-----2---2----X4-||------2-----2---2---|
D|-----0--------0--------0-----0-------------||----0-----0---------|
A|---2--------0------------------------------||--0-----------------|
E|---------------------3---------------------||--------------------|
                                               Play this ^ at the end of
                                               the fourth time playing
                                               the chorus

2nd GUITAR ON THE INSTRUMENTAL PART:
e|-------------------------------------------------------------------------|
B|--3-5-7--8-7-3--2--3--2---------3h5-5-5-5/7-8-7-3--2--3--3h5-------------|
G|-------------------------4--2--------------------------------------------|
D|-------------------------------------------------------------------------|
A|-------------------------------------------------------------------------|
E|-------------------------------------------------------------------------|

e|--5-3-2--3-2-------------------------------------------------------------|
B|-------------3--2--2h3------2-3---3/5-5-5-5/7-7-7-8--7--5\3--2--3--2-----|
G|------------------------2-4----------------------------------------------|
D|-------------------------------------------------------------------------|
A|-------------------------------------------------------------------------|
E|-------------------------------------------------------------------------|

So I would tab out this next part, but I have been working on this for
way too long and I just don't feel like doing it now, sorryy haha.
Maybe I'll finish it laterr.  I guess you could just play the verse again after the solo 
instead, then end with this chord:
e|-----2-------------|
B|-----3-------------|
G|-----2-------------|
D|-----4-------------|
A|-----0-------------|
E|-----0-------------|


| /  slide up
| \  slide down
| h  hammer-on
| p  pull-off
| ~  vibrato
| +  harmonic
| x  Mute note
============================================================================
Suggest correction
What's this?
You can suggest a correction to this tab. Community and Mods will review your correction and vote to approve or reject it.
comments
We did not receive enough feedback on this tab! Please rate:
print report bad tab
1 2 3 4 5
guest
You may want to rate the tab now too:
select rating
Please do not post tabs as comments. Select "correction" instead!