Oops, an error
Loading. Please wait.

Petal For Petal Tab

595 views 1 this week
no commentswrite comment
1 2 3 4 5
please rate
add to favorites
launch autoscroll
font size
0
reset
how to read this tab
guitar tuner
Autoscroll
slow
fast
+/-
esc
set tempo
stop
Help us to improve Ultimate-Guitar.com Take our survey!
×
Author
Capo
2nd fret
This is my version. It may not be 100% correct but its better than nothing ;)
I only put the chords up her so that you can figure out the strum patterns

Capo: 2nd Fret

  Verse:

e|---0-------------0-----------------0-----------------------------------------|
B|---0-------------0-----------------0-----------------------------------------|
G|---2-------------2-----------------4-----------------------------------------|
D|---2-------------4-----------------6-----------------------------------------|
A|---0-------------4-----------------6-----------------------------------------|
E|-----------------x-----------------x-----------------------------------------|

  Chorus:
e|---0-------------0-----------------0----------------0--------------------------|
B|---0-------------0-----------------0----------------0--------------------------|
G|---1-------------2-----------------4----------------2--------------------------|
D|---2-------------4-----------------6----------------2--------------------------|
A|---2-------------4-----------------6----------------0--------------------------|
E|---x-------------x-----------------x-------------------------------------------|
The second verse is the same except he just picks each note instead of playing the whole chord.

Thats basically the whole song. If you have any corrections, let me know.
************************************

| /   slide up
| \   slide down
| h   hammer-on
| p   pull-off
| ~   vibrato
| +   harmonic
| x   Mute note
| b   Bend
| pb  Pre-bend
| br  Bend release
| pbr Pre-bend release
| brb Bend release bend

************************************
Suggest correction
Give kudos to tab author, rate the tab!
1 2 3 4 5
comments
print report bad tab
guest
You may want to rate the tab now too:
select rating
Please do not post tabs as comments. Select "correction" instead!