Oops, an error
Loading. Please wait.

Summers Song Tab

version 1
version 1

Whole song

Interactive

81,016 views 24 this week
5 commentsread comments
1 2 3 4 5
x 20
add to favorites
launch autoscroll
font size
0
reset
how to read this tab
guitar tuner
Autoscroll
slow
fast
+/-
esc
set tempo
stop
Help us to improve Ultimate-Guitar.com Take our survey!
×
Difficulty
intermediate
hmmmmm so this is my first tab and i didnt see any good
tabs for this song, so ill give it a shot.


intro/verse

e  --------0----0--------2-0----------0-----0------0------------------------|
b  ----3-----3-------3-------3----3-----3------3----------------------------|
g  ------2----2--------2------------2-----2------2--------------------------|
d  --0----------------------------------------------------------------------|
a  ----------------4------------2--------------0----------------------------|
E  -------------------------------------------------------------------------|

e  ------------------------------------------------------------------------|
b  ------3------3------3-----3------3---3----3------5--3h5p3-2-------------|
g  ----2------2------2-----2------2---------------2----------------(x3)----|
d  ----------------0----------------------------0--------------------------|
a  ------------------------------------------0-----------------------------|
E  --0------2-----3------0------2-------3----------------------------------|


chorus

e  ---0-------0-------0-------0-------0----------------------------------|
b  ---3-------3-------3-------3-------3----------------------------------|
g  ---2-------2-------2-------2-------2-------------(x1)-----------------|
d  ---0-------0-------0-------0-------0----------------------------------|
a  ---0-------0-------2-------4-------0----------------------------------|
E  ---x-------3-------x-------x-------x----------------------------------|

*2nd guitar*

e  ---3-2----3-2---------------------------------------------------------|
b  -------3------3/5---7-5-3--2---2/3---3/5---5/7-----3/5--5/7---8-7-3---|
g  ----------------------------------------------------------------------|
d  ----------------------------------------------------------------------|
a  ----------------------------------------------------------------------|
E  ----------------------------------------------------------------------|

intro/verse

e  --------0----0--------2-0----------0-----0------0------------------------|
b  ----3-----3-------3-------3----3-----3------3----------------------------|
g  ------2----2--------2------------2-----2------2--------------------------|
d  --0----------------------------------------------------------------------|
a  ----------------4------------2--------------0----------------------------|
E  -------------------------------------------------------------------------|

e  ------------------------------------------------------------------------|
b  ------3------3------3-----3------3---3----3------5--3h5p3-2-------------|
g  ----2------2------2-----2------2---------------2------------------------|
d  ----------------0----------------------------0-----------------(x3)-----|
a  ------------------------------------------0-----------------------------|
E  --0------2-----3------0------2-------3----------------------------------|

chorus

e  ---0-------0-------0-------0-------0----------------------------------|
b  ---3-------3-------3-------3-------3----------------------------------|
g  ---2-------2-------2-------2-------2--------------(x2)----------------|
d  ---0-------0-------0-------0-------0----------------------------------|
a  ---0-------0-------2-------4-------0----------------------------------|
E  ---x-------3-------x-------x-------x----------------------------------|


before outro

e  ------------------------------------|---------0--------0---0------------|
b  ---3-3-----3-3-----3-3-----3-3------|-----3--------3-------3------------|
g  -------------------------------(x4)-|-------2--------2-----2------------|
d  ------------------------------------|----------------------0------------|
a  -----------0-0-----2-2-----0-0------|---2--------0---------0------------|
E  ---3-3------------------------------|----------------------3------------|


outro

e  ---0--------0----------0-------------0----------0---------------------|
b  ---3--------3-------3----3---3----3----3---3----3---------------------|
g  ---2--------2--------------2-------------2------2---------------------|
d  ---0--------0-----------------------------------0---------------------|
a  ---0--------0-------2-------------4-------------0---------------------|
E  ---x--------3-----------------------------------x---------------------|
Suggest correction
comments
print report bad tab
5 comments total. Showing first comments.
0 reply
Dave-CORE 10 Jan 15, 2009 02:22 PM

WOW! 5 STARS!
thanks mate (:
could you do never change?

+1 reply
heartstroke=] 10 Apr 14, 2009 03:46 PM

amazing

0 reply
Shad99 10 Nov 25, 2009 09:41 PM

e  --------0----0--------2-0----------0-----0------0------------------------|
b ----3-----3-------3-------3----3-----3------3----------------------------|
g ------2----2--------2------------2-----2------2--------------------------|
d --0----------------------------------------------------------------------|
a ----------------4------------2--------------0----------------------------|
E -------------------------------------------------------------------------|


That seems a little more right for that bit of the intro/verse

guest
You may want to rate the tab now too:
select rating
Wanna post a correction for this tab? Suggest correction