Oops, an error
Loading. Please wait.

Summers Song Tab

version 2
version 2

Whole song

Interactive

7,971 views 1 this week
1 commentread comment
1 2 3 4 5
excellent!
x 4
add to favorites
launch autoscroll
font size
0
reset
how to read this tab
guitar tuner
Autoscroll
slow
fast
+/-
esc
set tempo
stop
Help us to improve Ultimate-Guitar.com Take our survey!
×
Author
intro/verse

e  --------0----0--------2-0----------0-----0------0------------------------|
b  ----3-----3-------3-------3----3-----3------3----------------------------|
g  ------2----2--------2------------2-----2------2--------------------------|
d  --0----------------------------------------------------------------------|
a  ----------------4------------2--------------0----------------------------|
E  -------------------------------------------------------------------------|

e  ------------------------------------------------------------------------|
b  ------3------3------3-----3------3---3----3------5--3h5p3-2-------------|
g  ----2------2------2-----2------2---------------2----------------(x2)----|
d  ----------------0----------------------------0--------------------------|
a  ------------------------------------------0-----------------------------|
E  --0------2-----3------0------2-------3----------------------------------|


e  --------0----0--------2-0----------0-----0------0------------------------|
b  ----3-----3-------3-------3----3-----3------3----------------------------|
g  ------2----2--------2------------2-----2------2--------------------------|
d  --0----------------------------------------------------------------------|
a  ----------------4------------2--------------0----------------------------|
E  -------------------------------------------------------------------------|


e  ------------------------------------------------------------------------|
b  ------3------3------3-----3------3---3----------------------------------|
g  ----2------2------2-----2------2----------------------------------------|
d  ----------------0------------------------------------(1x)---------------|
a  ------------------------------------------------------------------------|
E  --0------2-----3------0------2-------3----------------------------------|



chorus

e  ---0-------0-------0-------0-------0----------0-----------------------|
b  ---3-------3-------3-------3-------3------------3---------------------|
g  ---2-------2-------2-------2-------2---(1x)-------2-------------------|
d  ---0-------0-------0-------0-------0----------------------------------|
a  ---0-------0-------2-------4-------0----------------------------------|
E  ---x-------3-------x-------x-------x----------------------------------|

acoustic solo

e  ---3-2----3-2---------------------------------------------------------|
b  -------3------3/5---7-5-3--2--2/3-3--3/5--3--5/7---3/5-3--5/7-3-8-7-3-|
g  ----------------------------------------------------------------------|
d  ----------------------------------------------------------------------|
a  ----------------------------------------------------------------0-----|
E  ----------------------------------------------------------------------|

e  --------------------
b  -3-----5--3h5p3-2---
g  -----2--------------
d  ---0----------------
a  -0------------------
E  --------------------

intro/verse

e  --------0----0--------2-0----------0-----0------0------------------------|
b  ----3-----3-------3-------3----3-----3------3----------------------------|
g  ------2----2--------2------------2-----2------2--------------------------|
d  --0----------------------------------------------------------------------|
a  ----------------4------------2--------------0----------------------------|
E  -------------------------------------------------------------------------|

e  ------------------------------------------------------------------------|
b  ------3------3------3-----3------3---3----3------5--3h5p3-2-------------|
g  ----2------2------2-----2------2---------------2------------------------|
d  ----------------0----------------------------0-----------------(x1)-----|
a  ------------------------------------------0-----------------------------|
E  --0------2-----3------0------2-------3----------------------------------|



e  --------0----0--------2-0----------0-----0------0------------------------|
b  ----3-----3-------3-------3----3-----3------3----------------------------|
g  ------2----2--------2------------2-----2------2--------------------------|
d  --0----------------------------------------------------------------------|
a  ----------------4------------2--------------0----------------------------|
E  -------------------------------------------------------------------------|


e  ------------------------------------------------------------------------|
b  ------3------3------3-----3------3---3----------------------------------|
g  ----2------2------2-----2------2----------------------------------------|
d  ----------------0---------------------------------------(1x)------------|
a  ------------------------------------------------------------------------|
E  --0------2-----3------0------2-------3----------------------------------|

chorus

e  ---0-------0-------0-------0-------0----------------------------------|
b  ---3-------3-------3-------3-------3----------------------------------|
g  ---2-------2-------2-------2-------2--------------(x1)----------------|
d  ---0-------0-------0-------0-------0----------------------------------|
a  ---0-------0-------2-------4-------0----------------------------------|
E  ---x-------3-------x-------x-------x----------------------------------|

(The Part Below These Words Was Hard But I Tried My Best And Its Close)

e  ---0-----------0----------0------------0-----------0--------0--------------------------|
b  ---3-----------3----------3------------3-----------3--------3--------------------------|
g  ---2--(12x)----2--(12x)---2--(6x)------2--(6x)-----2-(8x)---2---(8x)-------------------|
d  ---0---or------0---or-----0------------0-----------0--------0--------------------------|
a  ---0--(16x)----0--(16x)---2------------4-----------0--------0--------------------------|
E  ---x-----------3----------x------------x-----------x--------x--------------------------|


before outro

e  ------------------------------------|-----------------------------------|
b  ---3-3-----3-3-----3-3-----3-3------|-----3-3----3-3--------------------|
g  -------------------------------(x3)-|-----------------------------------|
d  ------------------------------------|-----------------------------------|
a  -----------0-0-----2-2-----0-0------|------------0-0--------------------|
E  ---3-3------------------------------|-----3-3---------------------------|

e  -------0-------0---0----------------|
b  ---3-------3-------3----------------|
g  -----2-------2-----2----------------|
d  -------------------0----------------|
a  -2-------0---------0----------------|
E  -------------------3----------------|


outro

e  ---0--------0----------0-------------0----------0---------------------|
b  ---3--------3-------3----3---3----3----3---3----3---------------------|
g  ---2--------2--------------2-------------2------2---------------------|
d  ---0--------0-----------------------------------0---------------------|
a  ---0--------0-------2-------------4-------------0---------------------|
E  ---x--------3-----------------------------------x---------------------|



Need help?

Aim- theawesomesk8er
Suggest correction
comments
print report bad tab
1 comment total.
0 reply
Nickleback12 30 wrote on July 9 2009, 02:07 pm

this is almost the same as the other tab...but i like it better...its pretty much all written out...good job...!

guest
You may want to rate the tab now too:
select rating
Wanna post a correction for this tab? Suggest correction