Oops, an error
Loading. Please wait.

Summers Song Tab

version 3
version 3

Whole song

Interactive

1,949 views 1 this week
no commentswrite comment
1 2 3 4 5
3 more votes to show rating
add to favorites
launch autoscroll
font size
0
reset
how to read this tab
guitar tuner
Autoscroll
slow
fast
+/-
esc
set tempo
stop
Help us to improve Ultimate-Guitar.com Take our survey!
×
Author
Difficulty
Tuning
Capo
intermediate
D A D G B E
2nd fret
Song:       Summer's Song
Artist:     Chase Coy
Tabbed by:  Jared Astillero
Tuning:     Drop D (DADGBE), Capo on 2nd fret (tab relative to capo)
Timing:     about 52 bpm

Note:       Please leave me feedback or shout me out if you use my tab, just out
of courtesy and my own curiousity lol..Thanks and enjoy! =]

Symbols:
| /  slide up
| h  hammer-on
| p  pull-off
| x  Mute note
| #  slap mute

===========================    INTRO   =====================================

   1 + 2 + 3 + 4 +   1 + 2 + 3 + 4 +   1 + 2 + 3 + 4 +   1 + 2 + 3 + 4 +
e|-----------------|-------0---------|-----------------|-----------------|
B|---1---3---1---1-|---1-----3---1---|---1---3---1---1-|-1-----3---------|
G|-----0-----------|-----0-----------|-----0-------0---|-----0-----------|
D|-----------------|-----------------|-----------------|---0-------------|
A|-3-----------3---|-2---------------|-0---------------|-----------------|
D|-----------------|-----------------|-----------------|-5---------------|

   1 + 2 + 3 + 4 +   1 + 2 + 3 + 4 +   1 + 2 + 3 + 4 +   1 + 2 + 3 + 4 +
e|-----------------|-----------------|-----------------|-----------------|
B|-----1-------1---|-------1---------|-----1-------1---|-1---------------|
G|-----------0-----|-----0-----------|-----------0-----|-0---------------|
D|---3-------------|-----------------|---3-------------|-----------------|
A|-----------------|---3-------------|-----------------|-----------------|
D|-0-------2-------|-3---------------|-0-------2-------|-3---------------|

   1 + 2 + 3 + 4   +   1 + 2 + 3 + 4 +  
e|-------------------|-----------------|
B|-1-----3-----1h3p1-|-0---------------|
G|-----0-------------|-----------------|
D|---0---------------|-----------------|
A|-------------------|-----------------|
D|-5-----------------|-----------------|

============================   VERSE 1   ==================================

This summer is       coming to a close                               and I'm

   1 + 2 + 3 + 4 +   1 + 2 + 3 + 4 +   1 + 2 + 3 + 4 +   1 + 2 + 3 + 4 +
e|-----------------|-------0---------|-----------------|-----------------|
B|---1---3---1---1-|---1-----3---1---|---1---3---1---1-|-1-----3---------|
G|-----0-----------|-----0-----------|-----0-------0---|-----0-----------|
D|-----------------|-----------------|-----------------|---0-------------|
A|-3-----------3---|-2---------------|-0---------------|-----------------|
D|-----------------|-----------------|-----------------|-5---------------|

   starting to figure out     that I  cannot   live without you

   1 + 2 + 3 + 4 +   1 + 2 + 3 + 4 +   1 + 2 + 3 + 4 +   1 + 2 + 3 + 4 +
e|-----------------|-----------------|-----------------|-----------------|
B|-----1-------1---|-------1---------|-----1-------1---|-1---------------|
G|-----------0-----|-----0-----------|-----------0-----|-0---------------|
D|---3-------------|-----------------|---3-------------|-----------------|
A|-----------------|---3-------------|-----------------|-----------------|
D|-0-------2-------|-3---------------|-0-------2-------|-3---------------|

  oo..

   1 + 2 + 3 + 4   +   1 + 2 + 3 + 4 +  
e|-------------------|-----------------|
B|-1-----3-----1h3p1-|-0---------------|
G|-----0-------------|-----------------|
D|---0---------------|-----------------|
A|-------------------|-----------------|
D|-5-----------------|-----------------|

I hope you're thinking of me       cuz all the stars above me sing your name

   1 + 2 + 3 + 4 +   1 + 2 + 3 + 4 +   1 + 2 + 3 + 4 +   1 + 2 + 3 + 4 +
e|-----------------|-------0---------|-----------------|-----------------|
B|---1---3---1---1-|---1-----3---1---|---1---3---1---1-|-1-----3---------|
G|-----0-----------|-----0-----------|-----0-------0---|-----0-----------|
D|-----------------|-----------------|-----------------|---0-------------|
A|-3-----------3---|-2---------------|-0---------------|-----------------|
D|-----------------|-----------------|-----------------|-5---------------|

        I'll never be the same again

   1 + 2 + 3 + 4 +   1 + 2 + 3 + 4 +   1 + 2 + 3 + 4 +   1 + 2 + 3 + 4 +
e|-----------------|-----------------|-----------------|-----------------|
B|-----1-------1---|-------1---------|-----1-------1---|-1---------------|
G|-----------0-----|-----0-----------|-----------0-----|-0---------------|
D|---3-------------|-----------------|---3-------------|-----------------|
A|-----------------|---3-------------|-----------------|-----------------|
D|-0-------2-------|-3---------------|-0-------2-------|-3---------------|

==============================   CHORUS   ==================================

So please don't forget to call        me just to let me know          you're

   1 + 2 + 3 + 4 +   1 + 2 + 3 + 4 +   1 + 2 + 3 + 4 +   1 + 2 + 3 + 4 + 
e|-----------------|-----------------|-----------------|-----------------|
B|-3---------------|-----------------|-1---------------|-----------------|
G|-0---------------|-----------------|-0---------------|-----------------|
D|-2---------------|-----------------|-x---------------|-----------------|
A|-3---------------|-----------------|-3---------------|-----------------|
D|-----------------|-----------------|-3---------------|-----------------|

  doin' okay        miles away from me

   1 + 2 + 3 + 4 +   1 + 2 + 3 + 4 +   1 + 2 + 3 + 4 +   1 + 2 + 3 + 4 +
e|-----------------|-----------------|-----------------|-----------------|
B|-1---------------|-1---------------|-3---------------|-3---1-----------|
G|-0---------------|-0---------------|-0---------------|---------0-------|
D|-2---------------|-0---------------|-x---------------|-----------------|
A|-0---------------|-x---------------|-3---------------|-----------------|
D|-----------------|-5---------------|-3---------------|-----------------|

============================   INTERLUDE   =================================

Solo:

   1 + 2 + 3 + 4 +   1 + 2 + 3 + 4 +   1 + 2 + 3 + 4 +   1 + 2 + 3 + 4 +
e|-1-0-------------|-1-0-------------|-0---------------|-----------------|
B|-----1-----------|-----1-3---------|---3-1-----------|-0---------------|
G|-----------------|-----------------|-----------------|-----------------|
D|-----------------|-----------------|-----------------|-----------------|
A|-----------------|-----------------|-----------------|-----------------|
D|-----------------|-----------------|-----------------|-----------------|

   Guitar 2:

      1 + 2 + 3 + 4 +   1 + 2 + 3 + 4 +   1 + 2 + 3 + 4 +   1 + 2 + 3 + 4 +
   e|-----------------|-------0---------|-----------------|-----------------|
   B|---1---3---1---1-|---1-----3---1---|---1---3---1---1-|-1-----3---------|
   G|-----0-----------|-----0-----------|-----0-------0---|-----0-----------|
   D|-----------------|-----------------|-----------------|---0-------------|
   A|-3-----------3---|-2---------------|-0---------------|-----------------|
   D|-----------------|-----------------|-----------------|-5---------------|

Solo:

   1 + 2 + 3 + 4 +   1 + 2 + 3 + 4 +   1 + 2 + 3 + 4 +   1 + 2 + 3 + 4 +
e|-----------------|-----------------|-----------------|-1-----0---------|
B|-0h1-----1/3-----|-3/5-------------|-1/3-----3/5-----|-----------1-----|
G|-----------------|-----------------|-----------------|-----------------|
D|-----------------|-----------------|-----------------|-----------------|
A|-----------------|-----------------|-----------------|-----------------|
D|-----------------|-----------------|-----------------|-----------------|

   Guitar 2:

      1 + 2 + 3 + 4 +   1 + 2 + 3 + 4 +   1 + 2 + 3 + 4 +   1 + 2 + 3 + 4 +
   e|-----------------|-----------------|-----------------|-----------------|
   B|-----1-------1---|-------1---------|-----1-------1---|-1---------------|
   G|-----------0-----|-----0-----------|-----------0-----|-0---------------|
   D|---3-------------|-----------------|---3-------------|-----------------|
   A|-----------------|---3-------------|-----------------|-----------------|
   D|-0-------2-------|-3---------------|-0-------2-------|-3---------------|

   Guitar 2:
        
      1 + 2 + 3 + 4   +   1 + 2 + 3 + 4 +  
   e|-------------------|-----------------|
   B|-1-----3-----1h3p1-|-0---------------|
   G|-----0-------------|-----------------|
   D|---0---------------|-----------------|
   A|-------------------|-----------------|
   D|-5-----------------|-----------------|

============================   VERSE 2   =================================

This summer was the best I've ever had   I never want     to see it end

   1 + 2 + 3 + 4 +   1 + 2 + 3 + 4 +   1 + 2 + 3 + 4 +   1 + 2 + 3 + 4 +
e|-----------------|-------0---------|-----------------|-----------------|
B|---1---3---1---1-|---1-----3---1---|---1---3---1---1-|-1-----3---------|
G|-----0-----------|-----0-----------|-----0-------0---|-----0-----------|
D|-----------------|-----------------|-----------------|---0-------------|
A|-3-----------3---|-2---------------|-0---------------|-----------------|
D|-----------------|-----------------|-----------------|-5---------------|

      so let's pretend    that we're  never   going back

   1 + 2 + 3 + 4 +   1 + 2 + 3 + 4 +   1 + 2 + 3 + 4 +   1 + 2 + 3 + 4 +
e|-----------------|-----------------|-----------------|-----------------|
B|-----1-------1---|-------1---------|-----1-------1---|-1---------------|
G|-----------0-----|-----0-----------|-----------0-----|-0---------------|
D|---3-------------|-----------------|---3-------------|-----------------|
A|-----------------|---3-------------|-----------------|-----------------|
D|-0-------2-------|-3---------------|-0-------2-------|-3---------------|

  home           again

   1 + 2 + 3 + 4   +   1 + 2 + 3 + 4 +  
e|-------------------|-----------------|
B|-1-----3-----1h3p1-|-0---------------|
G|-----0-------------|-----------------|
D|---0---------------|-----------------|
A|-------------------|-----------------|
D|-5-----------------|-----------------|

Just say those three words I know you're thinking I'm sick of wasting time on these

   1  +  2  +  3  +  4  +    1  +  2  +  3  +  4  +   1 + 2 + 3 + 4 +   1 + 2 + 3 + 4 +
e|-------------------------|----------0------------|------------------|-----------------|
B|----1-----3-----1-----1--|----1--------3-----1---|----1---3---1---1-|-1-----3---------|
G|-------0-----------------|-------0---------------|------0-------0---|-----0-----------|
D|-------------------------|-----------------------|------------------|---0-------------|
A|-3-----------------3-----|-2---------------------|--0---------------|-----------------|
D|-------------------------|-----------------------|------------------|-5---------------|

  formalities   please never leave my side
                               (please never leave my side)

   1 + 2 + 3 + 4 +   1 + 2 + 3 + 4 +   1 + 2 + 3 + 4 +   1 + 2 + 3 + 4 +
e|-----------------|-----------------|-----------------|-----------------|
B|-----1-------1---|-------1---------|-----1-------1---|-1---------------|
G|-----------0-----|-----0-----------|-----------0-----|-0---------------|
D|---3-------------|-----------------|---3-------------|-----------------|
A|-----------------|---3-------------|-----------------|-----------------|
D|-0-------2-------|-3---------------|-0-------2-------|-3---------------|

==============================   CHORUS   ==================================

So please don't forget to call        me just to let me know 

   1 + 2 + 3 + 4 +   1 + 2 + 3 + 4 +   1 + 2 + 3 + 4 +   1 + 2 + 3 + 4 + 
e|-----------------|-----------------|-----------------|-----------------|
B|-3-----3---1---3-|---1---3---1-----|-1-----3---1---3-|---1----3--1-----|
G|-0---------------|-------------0---|-0---------------|-----------------|
D|-2---------------|-----------------|-x---------------|-----------------|
A|-3---------------|-----------------|-3---------------|-----------------|
D|-----------------|-----------------|-3---------------|-----------------|

  you're doin' okay  miles away from me

   1 + 2 + 3 + 4 +   1 + 2 + 3 + 4 +   1 + 2 + 3 + 4 +   1 + 2 + 3 + 4 +
e|-----------------|-----------------|-----------------|-----------------|
B|-1-----3---1-----|-1---------1-----|-3---------------|-3p1-------------|
G|-0---------------|-0---------------|-0---------------|-----0-----0-----|
D|-2---------------|-0---------------|-x---------------|-----------------|
A|-0---------------|-x---------------|-3---------------|-------3---------|
D|-----------------|-5---------------|-3---------------|-----------------|

(strummming)

and please don't forget to call        me just to let me know 

   1 + 2 + 3 + 4 +   1 + 2 + 3 + 4 +   1 + 2 + 3 + 4 +   1 + 2 + 3 + 4 + 
e|-----------------|-----------------|-----------------|-----------------|
B|(3)--------------|(3)--------------|(1)--------------|(1)--------------|
G|(0)--------------|(0)--------------|(0)--------------|(0)--------------|
D|(2)--------------|(2)--------------|(x)--------------|(x)--------------|
A|(3)--------------|(3)--------------|(3)--------------|(3)--------------|
D|-----------------|-----------------|(3)--------------|(3)--------------|

  you're doin' okay  miles away from me                 miles away from   me

   1 + 2 + 3 + 4 +   1 + 2 + 3 + 4 +   1 + 2 + 3 + 4 +   1 + 2 + 3 + 4 +
e|-----------------|-----------------|-----------------|-----------------|
B|(1)--------------|(1)--------------|(3)--------------|(3)--------------|
G|(0)--------------|(0)--------------|(0)--------------|(0)--------------|
D|(2)--------------|(0)--------------|(x)--------------|(x)--------------|
A|(0)--------------|(x)--------------|(3)--------------|(3)--------------|
D|-----------------|(5)--------------|(3)--------------|(3)--------------|

   1 + 2 + 3 + 4 +  
e|-----------------|
B|-3---------------|
G|-0---------------|
D|-x---------------|
A|-3---------------|
D|-3---------------|

==============================   BRIDGE   ==================================

So please tell me    darling       why you're so far     away       when I

   1 + 2 + 3 + 4 +   1 + 2 + 3 + 4 +   1 + 2 + 3 + 4 +   1 + 2 + 3 + 4 +
e|-----------------|-----------------|-----------------|-----------------|
B|-1-----1-----#---|-1---#-1-----#---|-1---#-1-----#---|-1---#-1-----#---|
G|-----------------|-----------------|-----------------|-----------------|
D|-----------------|-----------------|-----------------|-----------------|
A|-----------------|-----------------|-0---#-0-----#---|-----------------|
D|-3-----3-----#---|-5---#-5-----#---|-----------------|-5---#-5-----#---|

  need you       beside me        tonight

   1 + 2 + 3 + 4 +   1 + 2 + 3 + 4 +   1 + 2 + 3 + 4 +   1 + 2 + 3 + 4 +
e|-----------------|-----------------|-----------------|-----------------|
B|-1-----1-----#---|-1---#-1-----#---|-1---#-1-----#---|-1---#-1-----#---|
G|-----------------|-----------------|-----------------|-----------------|
D|-----------------|-----------------|-----------------|-----------------|
A|-----------------|-----------------|-0---#-0-----#---|-----------------|
D|-3-----3-----#---|-5---#-5-----#---|-----------------|-5---#-5-----#---|

So please tell me    darling       why you're so far     away       when I

   1 + 2 + 3 + 4 +   1 + 2 + 3 + 4 +   1 + 2 + 3 + 4 +   1 + 2 + 3 + 4 +
e|-----------------|-----------------|-----------------|-----------------|
B|-1-----1-----#---|-1---#-1-----#---|-1---#-1-----#---|-1---#-1-----#---|
G|-----------------|-----------------|-----------------|-----------------|
D|-----------------|-----------------|-----------------|-----------------|
A|-----------------|-----------------|-0---#-0-----#---|-----------------|
D|-3-----3-----#---|-5---#-5-----#---|-----------------|-5---#-5-----#---|

  need you       beside me        tonight

   1 + 2 + 3 + 4 +   1 + 2 + 3 + 4 +   1 + 2 + 3 + 4 +   1 + 2 + 3 + 4 +
e|-----------------|-----------------|-----------------|-----------------|
B|-1-----1-----#---|-1---#-1-----#---|---1---3---1---3-|-1---------------|
G|-----------------|-----------------|-----0-------0---|-0---------------|
D|-----------------|-----------------|-----------------|-----------------|
A|-----------------|-----------------|-0---------------|-----------------|
D|-3-----3-----#---|-5---#-5-----#---|----------5------|-3---------------|

==============================   CHORUS   ==================================

So please don't forget to call        me just to let me know        you're

   1 + 2 + 3 + 4 +   1 + 2 + 3 + 4 +   1 + 2 + 3 + 4 +   1 + 2 + 3 + 4 + 
e|-----------------|-----------------|-----------------|-----------------|
B|-3---------------|-----------------|-1---------------|-----------------|
G|-0---------------|-----------------|-0---------------|-----------------|
D|-2---------------|-----------------|-x---------------|-----------------|
A|-3---------------|-----------------|-3---------------|-----------------|
D|-----------------|-----------------|-3---------------|-----------------|

  doin' okay  miles away from   me

   1 + 2 + 3 + 4 +   1 + 2 + 3 + 4 +   1 + 2 + 3 + 4 +  
e|-----------------|-----------------|-----------------||
B|-1---------------|-1-----3---1-----|-1---------------||
G|-0-------0-------|-0---------------|-0---------------||
D|-2---------------|-0---------------|-x---------------||
A|-0---------------|-x---------------|-3---------------||
D|-----------------|-5---------------|-3---------------||

===============================================================================
Suggest correction
Give kudos to tab author, rate the tab!
1 2 3 4 5
comments
print report bad tab
guest
You may want to rate the tab now too:
select rating
Wanna post a correction for this tab? Suggest correction