Oops, an error
Loading. Please wait.

The Second That You Say Tab

6,068 views 1 this week
2 commentsread comments
1 2 3 4 5
2 more votes to show rating
add to favorites
launch autoscroll
font size
0
reset
how to read this tab
guitar tuner
Autoscroll
slow
fast
+/-
esc
set tempo
stop
Help us to improve Ultimate-Guitar.com Take our survey!
×
Author
Difficulty
Capo
intermediate
6th fret
I've noticed that when I looked for tabs, there were none, only chord charts, which 
me a bit but didn't get everything so I hope this tabs helps you all get it all down. Enjoy.

I will post the chords and lyrics next to the corresponding measures, so it'll help a 
but won't be 100% spot on.

This is the live version, only the basis for the recorded version.

There is a capo on the 6th fret.

    C                                     F
E------------------------------------|------------------------------------|
B-------1-----1------1-----1---------|-------1-----1-----1-----1----------|
G---0-----0------0-----0-------------|---2-----2-----2-----2--------------|
D-----2-----2------2-----2-----------|-----3-----3-----3-----3------------|
A-3----------------------------------|------------------------------------|
E------------------------------------|-1----------------------------------|
 Did you know you have a special way, of turning around my terrible days.

    Am                                G
E---------------------------------|------------------------------------|
B-------1-----1-------------------|-------1-----1----------------------|
G---2-----2-----------------------|---0-----0--------------------------|
D-----2-----2---------------------|-----0-----0------------------------|
A-0-------------------------------|------------------------------------|
E---------------------------------|-3----------------------------------|
   You make all the bad things       go away.

   F                         G               C
E-----------------------|-----------------------------------------|
B-------1---------------|---------1-------------1-----1-----1-----|
G---2-----2-------------|---0-------0-------0-----0-----0-----0---|
D-----3-----3-----------|-------------0-------2-----2-----2-----2-|
A-----------------------|-----0h2---------3-----------------------|
E-1---------------------|-3---------------------------------------|
  The second that you      say              hello

    C
E------------------------------------|
B-------1-----1------1-----1---------|
G---0-----0------0-----0-------------|
D-----2-----2------2-----2-----------|
A-3----------------------------------|
E------------------------------------|
It's the way that you talk, that you laugh, that you smile

    F
E------------------------------------|
B-------1-----1-----1-----1----------|
G---2-----2-----2-----2--------------|
D-----3-----3-----3-----3------------|
A------------------------------------|
E-1----------------------------------|
And if beauty was inches, you'd go on for miles

    Am                                G
E---------------------------------|------------------------------------|
B-------1-----1-------------------|-------1-----1----------------------|
G---2-----2-----------------------|---0-----0--------------------------|
D-----2-----2---------------------|-----0-----0------------------------|
A-0-------------------------------|------------------------------------|
E---------------------------------|-3----------------------------------|
It's the way that you make everything seem worth while

   F                         G               C
E-----------------------|-----------------------------------------|
B-------1---------------|---------1-------------1-----1-----1-----|
G---2-----2-------------|---0-------0-------0-----0-----0-----0---|
D-----3-----3-----------|-------------0-------2-----2-----2-----2-|
A-----------------------|-----0h2---------3-----------------------|
E-1---------------------|-3---------------------------------------|
  The second that you      say              hello

    C
E------------------------------------|
B-------1-----1------1-----1---------|
G---0-----0------0-----0-------------|
D-----2-----2------2-----2-----------|
A-3----------------------------------|
E------------------------------------|
It's the way every love song reminds me of you

    F
E------------------------------------|
B-------1-----1-----1-----1----------|
G---2-----2-----2-----2--------------|
D-----3-----3-----3-----3------------|
A------------------------------------|
E-1----------------------------------|
Along with the stars and the sunset here too

    Am                                G
E---------------------------------|------------------------------------|
B-------1-----1-------------------|-------1-----1----------------------|
G---2-----2-----------------------|---0-----0--------------------------|
D-----2-----2---------------------|-----0-----0------------------------|
A-0-------------------------------|------------------------------------|
E---------------------------------|-3----------------------------------|
It's the way that you make the sky seem much more blue

   F                         G               C
E-----------------------|-----------------------------------------|
B-------1---------------|---------1-------------1-----1-----1-----|
G---2-----2-------------|---0-------0-------0-----0-----0-----0---|
D-----3-----3-----------|-------------0-------2-----2-----2-----2-|
A-----------------------|-----0h2---------3-----------------------|
E-1---------------------|-3---------------------------------------|
  The second that you      say              hello

    C
E------------------------------------|
B-------1-----1------1-----1---------|
G---0-----0------0-----0-------------|
D-----2-----2------2-----2-----------|
A-3----------------------------------|
E------------------------------------|
So if love is a drug then I guess I'm addicted

    F
E------------------------------------|
B-------1-----1-----1-----1----------|
G---2-----2-----2-----2--------------|
D-----3-----3-----3-----3------------|
A------------------------------------|
E-1----------------------------------|
All I want is to have yours, it's making my heart sick

    Am                                G
E---------------------------|------------------------------------|
B-------1-----1-------------|-------1-----1----------------------|
G---2-----2-----------------|---0-----0--------------------------|
D-----2-----2---------------|-----0-----0------------------------|
A-0-------------------------|------------------------------------|
E---------------------------|-3----------------------------------|
  Goodbye was what broke it   and you were what fixed it

   F                         G               C
E-----------------------|-----------------------------------------|
B-------1---------------|---------1-------------1-----1-----1-----|
G---2-----2-------------|---0-------0-------0-----0-----0-----0---|
D-----3-----3-----------|-------------0-------2-----2-----2-----2-|
A-----------------------|-----0-----------3-----------------------|
E-1---------------------|-3---------------------------------------|
  The second that you      said              hello
Suggest correction
Give kudos to tab author, rate the tab!
1 2 3 4 5
comments
print report bad tab
2 comments total.
0 reply
dandicriscia 388 Jan 27, 2011 09:21 PM

Capo is on the fourth fret but the finger picking is right!

0 reply
Piers kun 90 Mar 06, 2011 05:53 PM

well, when he used to play it, he used the sixth, but now a days when he plays live, he is using the fourth fret, yes.

guest
You may want to rate the tab now too:
select rating
Wanna post a correction for this tab? Suggest correction