Oops, an error
Loading. Please wait.

The Thing Ill Miss The Most Tab

382 views 1 this week
no commentswrite comment
1 2 3 4 5
please rate
add to favorites
launch autoscroll
font size
0
reset
how to read this tab
guitar tuner
Autoscroll
slow
fast
+/-
esc
set tempo
stop
Help us to improve Ultimate-Guitar.com Take our survey!
×
Author
Capo
1st fret
 Standard tuning and capo on 1st fret TABS WROTE BY ME Michael :D rate them please !

   INTRO
e|------------| 
B|----3-3-3-3-|
G|---0-0-0-0--| 2x
D|------------| 
A|--2---------|
E|-3-3-3-3----|

  VERSE 1
e|------------------------------|
B|----3-3-3-3--0-0-0-0--1-1-1-1-| 
G|---0-0-0-0--2-2-2-2--0-0-0-0--| 2x
D|-----------2--------2---------|
A|--2-------0-0-0-0--3-3-3-3----|
E|-3-3-3-3----------------------|

   CHORUS
e|------------------------------2-2-|  
B|----3-3-3-3--0-0---1-1--3-3--3-3--|
G|---0-0-0-0--2-2---0-0--0-0--2-----| 2x
D|-----------2-----2---------0-0----|
A|--2-------0-0---3-3--2------------|
E|-3-3-3-3------------3-3-----------|

   VERSE 2
e|------------------------------|
B|----3-3-3-3--0-0-0-0--1-1-1-1-| 
G|---0-0-0-0--2-2-2-2--0-0-0-0--| 2x
D|-----------2--------2---------|
A|--2-------0-0-0-0--3-3-3-3----|
E|-3-3-3-3----------------------|

   CHORUS
e|------------------------------2-2-|  
B|----3-3-3-3--0-0---1-1--3-3--3-3--|
G|---0-0-0-0--2-2---0-0--0-0--2-----| 2x
D|-----------2-----2---------0-0----|
A|--2-------0-0---3-3--2------------|
E|-3-3-3-3------------3-3-----------|

   BRIDGE
e|----------------2-|
B|-----1--1--3---3--|
G|----2--0--0---2---| 4x
D|---2--2------0----|
A|--0--3--2---------|
E|-------3----------|

     during- (Cause summer can wait..)
e|---------------------|
B|-----1-1-1-1-1-1-1-1-|
G|----2-2-2-2-0-0-0-0--|
D|---2-------2---------|
A|--0-0-0-0-3-3-3-3----|
E|---------------------|

  CHORUS
e|------------------------------2-2-|  
B|----3-3-3-3--0-0---1-1--3-3--3-3--|
G|---0-0-0-0--2-2---0-0--0-0--2-----| 2x
D|-----------2-----2---------0-0----|
A|--2-------0-0---3-3--2------------|
E|-3-3-3-3------------3-3-----------|

BEAUTIFUL SONG (:
ADD ME ON FACEBOOK " Michael Numnumz Ilovehannah "

Suggest correction
Give kudos to tab author, rate the tab!
1 2 3 4 5
comments
print report bad tab
guest
You may want to rate the tab now too:
select rating
Wanna post a correction for this tab? Suggest correction