Oops, an error
Loading. Please wait.

Girls Just Wanna Have Fun tab

445 views 1 this week
no commentswrite comment
1 2 3 4 5
x 3
add to favorites
×
Save as Personal and add changes to this tab that will be seen only by you. Learn more ›
×
You can save this tab as Personal to edit and correct it or add notes. All changes will be seen only by you. Learn more »
launch autoscroll
font size
0
reset
how to read this tab
guitar tuner
edit
Autoscroll
slow
fast
+/-
esc
set tempo
stop
-------------------------------------------------------------------------------
GIRLS JUST WANNA HAVE FUN – Chase Holfelder
-------------------------------------------------------------------------------
Tabbed by: Patrick Stoddard
E-mail: mrtuesdaypants@gmail.com

Tuning: EADGBE

Capo: 3rd fret

Intro:

e|---------------------------------------0---------------0-------------------|
B|-------3-------3-------3-------3-----------3---------------3---------------|
G|---4-------4-------4-------4-------0---------------0-----------0-----------|
D|-----------------------------------------------4---------------------------|
A|-2---2---2---2---2---2---0---0---------------------------------------------|
E|---------------------------------3---3---3---3---3---3---2---2-------------|

e|-------0-------0-------0-----------3----------0---0----0-------------------|
B|-----------0-------0-------0-----------3------0h2-2p0--0-------------------|
G|---0---------------------------0-----------0--2---2----2-------------------|
D|----------------------------------------------2---2----2-------------------|
A|----------------------------------------------0---0----0-------------------|
E|-0---0---0---0---0---0---0---3---3---3---3----0---0----0-------------------|


Verse
e|---0---------0------------0-------0---------0-----------0-------------0----|
B|---3---------3------------3-------3---------3-----------3-------------3----|
G|---4---------4------------4-------4---------0-----------0-------------0----|
D|---4---------4------------4-------4---------4-----------4-------------4----|
A|-2-2-------2-2----------2-2-----0-0---------X-----------X-------------X----|
E|------------------------------------------3-3---------3-3-----------3-3----|
 1.She comes home in the morning light her mother says when you gonna live 
 2.The phone rings in the middle of the night her father yells what you are gonna

e|--------------0-------0--------0------------------0---------0--------------|
B|--------------3-------0--------0------------------0---------0--------------|
G|--------------0-------0--------0------------------0---------0--------------|
D|--------------4-------2--------2------------------2---------2--------------|
A|--------------X-------2--------2------------------2---------2--------------|
E|------------2-2-----0-0------0-0----------------0-0-------0-0--------------|
   Your life right? Oh mother dear we’re not the fortunate ones. 
   Do with your life? Oh daddy dear you know you’re still number one

End for verse 1:
e|--------3------3------0------0---------------------------------------------|
B|--------3------3------0h2----2-------------------------3-------3-------3---|
G|--------0------0------2------2---------------------4-------4-------4-------|
D|--------0------0------2------2---------------------------------------------|
A|--------0------0------0------0-------------------2---2---2---2---2---2-----|
E|------3-3----3-3----0-0----0-0---------------------------------------------|
    And girls,                  they wanna have fun


e|--------------0---------------0-----------------0-------0-------0----------|
B|------3-----------3---------------3-----------------0-------0-------0------|
G|--4-------0---------------0-----------0-----0------------------------------|
D|----------------------4----------------------------------------------------|
A|0---0----------------------------------------------------------------------|
E|--------3---3---3---3---3---3---2---2-----0---0---0---0---0---0---0--------|
  Oh those girls                just wanna have fun             Oooh

e|------3----------0---0----0-------------------|
B|----------3------0h2-2p0--0-------------------|
G|--0-----------0--2---2----2-------------------|
D|-----------------2---2----2-------------------|
A|-----------------0---0----0-------------------|
E|3---3---3---3----0---0----0-------------------|

End for verse 2:
e|--------3------3------0------0-------------------------------------------X-|
B|--------3------3------0h2----2-------------------------3-------3-------3-X-|
G|--------0------0------2------2---------------------4-------4-------4-----X-|
D|--------0------0------2------2-------------------------------------------X-|
A|--------0------0------0------0-------------------2---2---2---2---2---2---X-|
E|------3-3----3-3----0-0----0-0-------------------------------------------X-|
   And girls,                   they wanna have fun


Chorus
e|---0---------------------0---3-------------3-----0-------------------------|
B|---3---------------------2---3-------------2-----0-------------------------|
G|---4---------------------2---0-------------3-----0-------------------------|
D|---4---------------------2---0-------------0-----2-------------------------|
A|---2---------------------0---2-------------0-----2-------------------------|
E|---0---------------------0---3-------------0-----0-------------------------|
   That’s all they really want. Some fun.       When the working day is done

e|--3----------------0--------------0---------------------0---3-----------3--|
B|--3----------------2--------------3---------------------2---3-----------2--|
G|--0----------------2--------------4---------------------2---0-----------3--|
D|--0----------------2--------------4---------------------2—--0-----------0--|
A|--2----------------0--------------2---------------------0---2-----------0--|
E|--3----------------0--------------0---------------------0---3-----------0--|
   When the working day is done.  That’s all they really want   Some fun.

e|-0-----------------------------3--------------0----------------------------|
B|-0-----------------------------3--------------2----------------------------|
G|-0-----------------------------0--------------2----------------------------|
D|-2-----------------------------0--------------2----------------------------|
A|-2-----------------------------2--------------0----------------------------|
E|-0-----------------------------3--------------0----------------------------|
  When the working day is done. When the working day is done

e|---------------------------------------0---------------0-------------------|
B|-------3-------3-------3-------3-----------3---------------3---------------|
G|---4-------4-------4-------4-------0---------------0-----------0-----------|
D|-----------------------------------------------4---------------------------|
A|-2---2---2---2---2---2---0---0---------------------------------------------|
E|---------------------------------3---3---3---3---3---3---2---2-------------|
  Those girls            just wanna have fun            Oh those girls

e|-------0-------0-------0-----------3----------0---0----0-------------------|
B|-----------0-------0-------0-----------3------0h2-2p0--0-------------------|
G|---0---------------------------0-----------0--2---2----2-------------------|
D|----------------------------------------------2---2----2-------------------|
A|----------------------------------------------0---0----0-------------------|
E|-0---0---0---0---0---0---0---3---3---3---3----0---0----0-------------------|
                        Just wanna have fun

e|--0--------------------------0--------0------------------------------------|
B|--3--------------------------3--------3------------------------------------|
G|--4--------------------------4--------0------------------------------------|
D|--4--------------------------4--------4------------------------------------|
A|--2--------------------------0--------X------------------------------------|
E|--0--------------------------0--------3------------------------------------|
   Some boys take a beautiful girl and hide her away from the rest of the 

e|-0-----0-------------------------------------------------3---0-------------|
B|-3-----0-------------------------------------------------3---2-------------|
G|-0-----0-------------------------------------------------0---2-------------|
D|-4-----2-------------------------------------------------0---2-------------|
A|-X-----2-------------------------------------------------2---0-------------|
E|-2-----0-------------------------------------------------3---0-------------|
   World. She wants to be the one to walk in the sun. And girls they wanna

e|------0--------------------------------------------------------------------|
B|------3--------------------------------------------------------------------|
G|------4--------------------------------------------------------------------|
D|------4--------------------------------------------------------------------|
A|------2--------------------------------------------------------------------|
E|------0--------------------------------------------------------------------|
  Have fun

Chorus
e|---0---------------------0---3-------------3-----0------------------------|
B|---3---------------------2---3-------------2-----0------------------------|
G|---4---------------------2---0-------------3-----0------------------------|
D|---4---------------------2---0-------------0-----2------------------------|
A|---2---------------------0---2-------------0-----2------------------------|
E|---0---------------------0---3-------------0-----0------------------------|
   That’s all they really want. Some fun.       When the working day is done

e|--3----------------0--------------0---------------------0---3-------3------|
B|--3----------------2--------------3---------------------2---3-------2------|
G|--0----------------2--------------4---------------------2---0-------3------|
D|--0----------------2--------------4---------------------2—--0-------0------|
A|--2----------------0--------------2---------------------0---2-------0------|
E|--3----------------0--------------0---------------------0---3-------0------|
   When the working  day is done.  That’s all they really want   Some fun.

e|-0-----------------------------3--------------0----------------------------|
B|-0-----------------------------3--------------2----------------------------|
G|-0-----------------------------0--------------2----------------------------|
D|-2-----------------------------0--------------2----------------------------|
A|-2-----------------------------2--------------0----------------------------|
E|-0-----------------------------3--------------0----------------------------|
  When the working day is done. When the working day is done

e|---------------------------------------0---------------0-------------------|
B|-------3-------3-------3-------3-----------3---------------3---------------|
G|---4-------4-------4-------4-------0---------------0-----------0-----------|
D|-----------------------------------------------4---------------------------|
A|-2---2---2---2---2---2---0---0---------------------------------------------|
E|---------------------------------3---3---3---3---3---3---2---2-------------|
  Those girls           They wanna have fun             Oh those girls

e|-------0-------0-------0-----------3----------0---0----0-------------------|
B|-----------0-------0-------0-----------3------0h2-2p0--0-------------------|
G|---0---------------------------0-----------0--2---2----2-------------------|
D|----------------------------------------------2---2----2-------------------|
A|----------------------------------------------0---0----0-------------------|
E|-0---0---0---0---0---0---0---3---3---3---3----0---0----0-------------------|
                Just wanna have fun             ooooh



************************************

| /   slide up
| \   slide down
| h   hammer-on
| p   pull-off
| ~   vibrato
| +   harmonic
| x   Mute note
| b   Bend
| pb  Pre-bend
| br  Bend release
| pbr Pre-bend release
| brb Bend release bend

************************************

            
            
Suggest correction
Creating personal tab
Creating personal tab
You can edit any tab online and save it as your Personal.

You can edit, replace or remove any tab part or add personal notes – all changes will be seen only by you.

Personal tabs can be accessed anytime from any device, even offline.
Learn more »
Give kudos to tab author, rate the tab!
1 2 3 4 5
comments
print report bad tab
guest
You may want to rate the tab now too:
select rating
Wanna post a correction for this tab? Suggest correction