Oops, an error
Loading. Please wait.

Heartbeat tab

version 1
version 1

Whole song

5,141 views 3 this week
1 commentread comment
1 2 3 4 5
x 4
add to favorites
×
Save as Personal and add changes to this tab that will be seen only by you. Learn more ›
×
You can save this tab as Personal to edit and correct it or add notes. All changes will be seen only by you. Learn more »
launch autoscroll
font size
0
reset
how to read this tab
guitar tuner
edit
Autoscroll
slow
fast
+/-
esc
set tempo
stop
i dont know the beginning as its all piano

e----------------------------------|
B----------------------------------|
G----------------------------------|
D--9x16-5x8-7x8--------------------|
A--9x16-5x8-7x8--x4----------------|
D--9x16-5x8-7x8--------------------|
   "ca-a-an you fe-e-el"

e----------------------------------|
B----------------------------------|
G-----7-----6-----4-----6----------|
D--9-----7-----5-----7-------------|
A--9-----7-----5-----7-------------|
D--9-----7-----5-----7-------------|

final chorus bit
e-----------------------------------|
B-----------------------------------|
G-----------------------------------|
D--9-----7-----5-----7--------------|
A--9-x4--7-x4--5-x4--7-x4-----------|
D--9-----7-----5-----7--------------|
"-----------------------------------|ca-a-an you fe-e-el my hear-ar-ar-ar-art is beating"

            
            
Suggest correction
Creating personal tab
Creating personal tab
You can edit any tab online and save it as your Personal.

You can edit, replace or remove any tab part or add personal notes – all changes will be seen only by you.

Personal tabs can be accessed anytime from any device, even offline.
Learn more »
comments
print report bad tab
1 comment total.
+1 reply
eljoisawesome 10 Mar 08, 2011 10:02 PM

dude nice work, but the first set of chords might be misleading.

e-----------------------------------------|
B-----------------------------------------|
G-----------------------------------------|
D---9-------5------7----------------------|
A---9-x16---5-x8---7x8--x4----------------|
D---9-------5------7----------------------|

try that instead bro

guest
Wanna post a correction for this tab? Suggest correction