Oops, an error
Loading. Please wait.

Pieces Tab

version 1
version 1

Intro

Whole song

28,296 views 6 this week
2 commentsread comments
1 2 3 4 5
accurate
x 6
add to favorites
launch autoscroll
font size
0
reset
how to read this tab
guitar tuner
Tab Pro tools
  • play this tab
  • loop segment
  • change instrument
  • show fretboard
  • metronome
×
Best way to learn
"Pieces"
Autoscroll
slow
fast
+/-
esc
set tempo
stop
Contributor
Drop D Tuning

E-------------------------------------------------|
B-------------------------------------------------|
G-------------------------------------------------|
D-6-6-6-6-6-9-9-9-9-9-9-4-4-4-4-4-4-2-2-2-2-2-2---|
A-6-6-6-6-6-9-9-9-9-9-9-4-4-4-4-4-4-2-2-2-2-2-2---|
D-6-6-6-6-6-9-9-9-9-9-9-4-4-4-4-4-4-2-2-2-2-2-2---|

Repeat the above throught the intro, the last time you play leave the below ringing:

D-6---
A-6---
D-6---

you'll get what i mean once you listen to the track. The song only has guitar up until 
1:00 or so, then at 2:35.

This should be correct, any corrections needed message me :)
comments
print report bad tab
2 comments total.
0 reply
moodrewmedia wrote on April 26 2009, 09:12 pm

awesome tab, nicely done

one added thing though
at one point theres a riff that repeats

-9---------9---------
---11-9-11---11-9-11-
---------------------
---------------------
---------------------
---------------------

but thats really easy to figure out lol
cheers x

0 reply
jwizzle!! wrote on April 2 2010, 08:47 am

In the video he uses an E-shape barre chord and the guitar in standard tuning. Also your tab is a semi-tone flat, it should start:
e--5--
A--5--
D--6--
G--7--
B--7--
E--5--

I want to post or [tab]
guest
You may want to rate the tab now too:
select rating
Please do not post tabs as comments. Select "correction" instead!