Oops, an error
Loading. Please wait.

Castaway bass

version 1
version 1

Whole song

Interactive

by Chasen
78 views 1 this week
no commentswrite comment
1 2 3 4 5
3 more votes to show rating
add to favorites
×
Save as Personal and add changes to this tab that will be seen only by you. Learn more ›
×
You can save this tab as Personal to edit and correct it or add notes. All changes will be seen only by you. Learn more »
launch autoscroll
font size
0
reset
guitar tuner
edit
Autoscroll
slow
fast
+/-
esc
set tempo
stop
Author
Difficulty
Song: Castaway
Band: Chasen
Album: That Was Then, This is Now

Intro:
Bass comes in with guitars and drums

G------------------------------------------------|
D------------------------------------------------|
A------------11-11-11-11-6-6-6-6-----------------|
E----8-8-8-8---------------------6-6-6-6---------|

G------------------------------------------------|
D------------------------------------------1-----|
A------------11-11-11-11-6-6-6-6-------------3---|
E----8-8-8-8---------------------0-2-0-3-0-------|
I'm not sure if the bass plays this riff at the end of the intro, but here it is if you 
want to play it. It's really fast.

No bass for beginning of verse

Verse: "My victories are bittersweet, and now I can tell"

G------------------------------------------------|
D------------------------------------------------|
A----------------6-----------------------6-------|
E----8-----4-4---------6-6---8-----4-4-----------|

Chorus: "I'm overboard, too far from shore"

G--------------------------------------------------------------------|
D-------------------------------------------------------------10-----|
A------------6-6-6-6-------------------------6-6-6-6-------------10--|
E----4-4-4-4---------6-6-6-6-6-6-6-6-4-4-4-4---------6-6-6-6---------|

G------------------------------------------------------------------|
D------------------------------------------------------------------|
A------------6-6-6-6-------------------------6-6-6-6-8-8-8-8--8----|
E----4-4-4-4---------6-6-6-6-6-6-6-6-4-4-4-4--------------------6--|

Post-chorus:

G------------------------------------------------|
D------------------------------------------------|
A------------11-11-11-11-6-6-6-6-----------------|
E----8-8-8-8---------------------6-6-6-6---------|

G------------------------------------------------|
D------------------------------------------1-----|
A------------11-11-11-11-6-6-6-6-------------3---|
E----8-8-8-8---------------------0-2-0-3-0-------|

Verse 2: "I had a dream of a life of my own"
Come in on second measure of the verse this time.

G------------------------------------------------|
D-----eleven--------------10---6-6----------8-8--|
A--------11-/-6-----------------------6----------|
E-------------------6-6--------------------------|

G----------------------------------------------------|
D-----------------eleven-----------------------------|
A----------------6/11--------------------6-----------|
E----8-----4-4---------6-6---8-----4-4--------6-6----|


Chorus: "I'm overboard, too far from shore"

G--------------------------------------------------------------------|
D-------------------------------------------------------------10-----|
A------------6-6-6-6-------------------------6-6-6-6-------------10--|
E----4-4-4-4---------6-6-6-6-6-6-6-6-4-4-4-4---------6-6-6-6---------|

G------------------------------------------------------------------|
D------------------------------------------------------------------|
A------------6-6-6-6-------------------------6-6-6-6-8-8-8-8--8----|
E----4-4-4-4---------6-6-6-6-6-6-6-6-4-4-4-4--------------------6--|

Post-chorus:

G------------------------------------------------|
D------------------------------------------------|
A------------11-11-11-11-6-6-6-6-----------------|
E----8-8-8-8---------------------6-6-6-6---------|

G------------------------------------------------|
D------------------------------------------1-----|
A------------11-11-11-11-6-6-6-6-------------3---|
E----8-8-8-8---------------------0-2-0-3-0-------|

Bridge: "A second chance I won't forget"

G----tens----------------------------------------------------|
D-----1010101010101010-66666666------------------------------|
A-------------------------------66666666-1010101010101010----|
E------------------------------------------------------------|

G----tens----------------------------------------------------|
D-----1010101010101010-66666666------------------------------|
A-------------------------------66666666-1010101010101010----|
E------------------------------------------------------------|

G------------------------------------------------------------|
D----10-10-10101010-6-6-6666---------------------------------|
A----------------------------6-6-6666-8-8-8888---------------|
E------------------------------------------------------------|

G------------------------------------------------------------|
D----10-10-10101010-6-6-6666-------------------10/-----------|
A----------------------------6-6-6666-8-8-8888---------------|
E------------------------------------------------------------|

Chorus: "I'm overboard, too far from shore"
Don't play for the first part of the chorus. Come in with the drums and electric guitar.

G------------------------------------------------------------------------|
D---10-------------------------------------------------------------------|
A------10----------6-6-6-6-------------------------6-6-6-6-8-8-8-8--8----|
E----------4-4-4-4---------6-6-6-6-6-6-6-6-4-4-4-4--------------------6--|

Post-chorus:

G------------------------------------------------|
D------------------------------------------------|
A------------11-11-11-11-6-6-6-6-----------------|
E----8-8-8-8---------------------6-6-6-6---------|

G------------------------------------------------|
D------------------------------------------------|
A------------11-11-11-11-6-6-6-6-----------------|
E----8-8-8-8---------------------6-6-6-6---------|

G------------------------------------------------|
D------------------------------------------------|
A------------11-11-11-11-6-6-6-6-----------------|
E----8-8-8-8---------------------6-6-6-6---------|

G------------------------------------------------|
D------------------------------------------1-----|
A------------11-11-11-11-6-6-6-6-------------3---|
E----8-8-8-8---------------------0-2-0-3-0-------|

The end. Thanks for looking and God bless :)
Suggest correction
Creating personal tab
Creating personal tab
You can edit any tab online and save it as your Personal.

You can edit, replace or remove any tab part or add personal notes – all changes will be seen only by you.

Personal tabs can be accessed anytime from any device, even offline.
Learn more »
Give kudos to tab author, rate the tab!
1 2 3 4 5
comments
print report bad tab
guest
You may want to rate the tab now too:
select rating
Wanna post a correction for this tab? Suggest correction