Oops, an error
Loading. Please wait.

Lydia Tab

112 views 3 this week
no commentswrite comment
1 2 3 4 5
3 more votes to show rating
add to favorites
launch autoscroll
font size
0
reset
how to read this tab
guitar tuner
Autoscroll
slow
fast
+/-
esc
set tempo
stop
Help us to improve Ultimate-Guitar.com Take our survey!
×
Author
Difficulty
novice
[1:17-1:43]
e|-12-12-12-12--9-9-9-9--12-12-12-12--9-9-9-9--12-12-12-12--9-9-9-9----------|
B|---------------------------------------------------------------------------|
G|---------------------------------------------------------------------------|
D|---------------------------------------------------------------------------|
A|---------------------------------------------------------------------------|
E|---------------------------------------------------------------------------|

e|-14-14-14-14--12-12-12-12--12-12-12-12--9-9-9-9--14-14-14-14--12-12-12-12--|
B|---------------------------------------------------------------------------|
G|---------------------------------------------------------------------------|
D|---------------------------------------------------------------------------|
A|---------------------------------------------------------------------------|
E|---------------------------------------------------------------------------|

e|-14-14-14-14-14b16-b16-b16-b16-12-12-12-12--9-9-9----12-12-12-9--9-9-9-----|
B|--------------------------------------------------12-----------------------|
G|---------------------------------------------------------------------------|
D|---------------------------------------------------------------------------|
A|---------------------------------------------------------------------------|
E|---------------------------------------------------------------------------|

e|------------------------------12-12-12-12--9-9-9-9--12-12-12-12--9-9-9-9---|
B|-12-12-12-10---------------------------------------------------------------|
G|-------------11-11-11-9--9-9-----------------------------------------------|
D|---------------------------------------------------------------------------|
A|---------------------------------------------------------------------------|
E|---------------------------------------------------------------------------|

e|-12-12-12-12--14-14b16-----------------------------------------------------|
B|---------------------------------------------------------------------------|
G|---------------------------------------------------------------------------|
D|---------------------------------------------------------------------------|
A|---------------------------------------------------------------------------|
E|---------------------------------------------------------------------------|

[2:39-1:43]
e|-12-12-12-12--9-9-9-9--12-12-12-12--9-9-9-9--12-12-12-12--9-9-9-9----------|
B|---------------------------------------------------------------------------|
G|---------------------------------------------------------------------------|
D|---------------------------------------------------------------------------|
A|---------------------------------------------------------------------------|
E|---------------------------------------------------------------------------|

e|-12-12-12-12--9-9-9-9--12-12-12-12--9-9-9-9--14-14-14-14--12-12-12-12--|
B|---------------------------------------------------------------------------|
G|---------------------------------------------------------------------------|
D|---------------------------------------------------------------------------|
A|---------------------------------------------------------------------------|
E|---------------------------------------------------------------------------|

e|-14-14-14-14-14b16-b16-b16-b16-12-12-12-12--9-9-9----12-12-12-9--9-9-9-----|
B|--------------------------------------------------12-----------------------|
G|---------------------------------------------------------------------------|
D|---------------------------------------------------------------------------|
A|---------------------------------------------------------------------------|
E|---------------------------------------------------------------------------|

e|------------------------------12-12-12-12--9-9-9-9--12-12-12-12--9-9-9-9---|
B|-12-12-12-10---------------------------------------------------------------|
G|-------------11-11-11-9--9-9-----------------------------------------------|
D|---------------------------------------------------------------------------|
A|---------------------------------------------------------------------------|
E|---------------------------------------------------------------------------|

e|-12-12-12-12--14-14b16-----------------------------------------------------|
B|---------------------------------------------------------------------------|
G|---------------------------------------------------------------------------|
D|---------------------------------------------------------------------------|
A|---------------------------------------------------------------------------|
E|---------------------------------------------------------------------------|
 

************************************

| b  Bend
| s  Slide

************************************
Suggest correction
Give kudos to tab author, rate the tab!
1 2 3 4 5
comments
print report bad tab
guest
You may want to rate the tab now too:
select rating
Wanna post a correction for this tab? Suggest correction