Oops, an error
Loading. Please wait.

Seattle Party bass

229 views 18 this week
1 commentread comment
1 2 3 4 5
1 last vote to show rating
add to favorites
×
Save as Personal and add changes to this tab that will be seen only by you. Learn more ›
×
You can save this tab as Personal to edit and correct it or add notes. All changes will be seen only by you. Learn more »
launch autoscroll
font size
0
reset
guitar tuner
edit
Autoscroll
slow
fast
+/-
esc
set tempo
stop
138 bpm
4/4

[Intro]                           
G|--------------------------------|
D|--------------------------------|
A|--------------------------------|(x8)
D|--------------------------------|
 
[Verse]                                                            
G|0-------0-------0---------------|--------------------------------|
D|--------------------2-------0---|------------0-------0---0-------|
A|--------------------------------|--------------------------------|
D|--------------------------------|--------------------------------|
                                                                     
G|2-------2-------2---------------|--------------------------------|
D|--------------------4-------2---|--------------------2---2-------|
A|--------------------------------|--------------------------------|
D|--------------------------------|--------------------------------|
                                                                     
G|0-------0-------0---------------|--------------------------------|
D|--------------------2-------0---|----------------0---------------|
A|--------------------------------|--------------------------------|
D|--------------------------------|--------------------------------|
                                                                    
G|2-------2-------2---------------|--------------------------------|
D|--------------------4-------2---|--------------------------------|
A|--------------------------------|--------------------------------|
D|--------------------------------|--------------------------------|
                                                                    
G|0-------0-------0---------------|--------------------------------|
D|--------------------2-------0---|------------0-------0---0-------|
A|--------------------------------|--------------------------------|
D|--------------------------------|--------------------------------|
                                                                     
G|2-------2-------2---------------|--------------------------------|
D|--------------------4-------2---|--------------------2---2-------|
A|--------------------------------|--------------------------------|
D|--------------------------------|--------------------------------|
                                                                     
G|0-------0-------0---------------|--------------------------------|
D|--------------------2-------0---|------------0-------0---0-------|
A|--------------------------------|--------------------------------|
D|--------------------------------|--------------------------------|
                                                                     
G|2-------2-------2---------------|--------------------------------|
D|--------------------4-------2---|--------------------------------|
A|--------------------------------|--------------------------------|
D|--------------------------------|--------------------------------|
 
[Break]                                                            
G|--------------------------------|--------------------------------|
D|--------------------------------|--------------------------------|
A|--------------------------------|--------------------------------|
D|2-------2-----------2-------0---|0---0---0---0---0---0---0-------|
                                                                     
G|--------------------------------|--------------------------------|
D|--------------------------------|--------------------------------|
A|--------------------------------|--------------------------------|
D|4-------4-----------4-------2---|--------2-------2-------2-------|
                                                                     
G|--------------------------------|--------------------------------|
D|--------------------------------|--------------------------------|
A|--------------------------------|--------------------------------|
D|2-------2-----------2-------0---|0---0---0---0---0---0---0-------|
                                                                    
G|--------------------------------|--------------------------------|
D|--------------------------------|--------------------------------|
A|--------------------------------|--------------------------------|
D|4-------4-----------4-------2---|2---2---2---2---2---2---2-------|
 
[Chorus]                                                           
G|--------------------------------|----------------------------2---|
D|0-------0---------------0-------|0-------0-----------------------|
A|--------------------------------|--------------------------------|
D|--------------------------------|--------------------------------|
                                                                    
G|2-------2-----------------------|2-------2-----------------------|
D|--------------------------------|--------------------------------|
A|--------------------------------|--------------------------------|
D|--------------------------------|--------------------------------|
                                                                     
G|--------------------------------|--------------------------------|
D|0-------0-------0---------------|0-------0---0---0---0-----------|
A|------------------------2-------|------------------------2---2---|
D|--------------------------------|--------------------------------| 
                                                                    
G|0-------0---------------0-------|0-------0---------------0---2---|
D|--------------------------------|--------------------------------|
A|--------------------------------|--------------------------------|
D|--------------------------------|--------------------------------|
                                                                     
G|0-------0---------------2-------|0---------------2---------------|
D|--------------------------------|--------------------------------|
A|--------------------------------|--------------------------------|
D|--------------------------------|--------------------------------|
                                                                     
G|--------------------------------|--------------------------------|
D|0-------0-------0-------0-------|4-------------------------------|
A|--------------------------------|----------------5---------------|
D|--------------------------------|--------------------------------|
                                                                     
G|--------------------------------|--------------------------------|
D|2-------2-------1-------0-------|4-------------------------------|
A|--------------------------------|----------------5---------------|
D|--------------------------------|--------------------------------|
                                                                   
G|0-------0-----------------------|0-------------------------------|
D|------------------------0-------|--------------------------------|
A|--------------------------------|--------------------------------|
D|--------------------------------|--------------------------------|
                                                                    
G|0-------0---------------2-------|0---------------2---------------|
D|--------------------------------|--------------------------------|
A|--------------------------------|--------------------------------|
D|--------------------------------|--------------------------------|
 
[Verse]                                                            
G|0-------------------------------|--------------------------------|
D|--------0---------------0-------|4-------------------------------|
A|--------------------------------|----------------5---------------|
D|--------------------------------|--------------------------------| 
                                                                    
G|--------------------------------|--------------------------------|
D|--------------------------------|4-------------------------------|
A|4-------4---------------4-------|----------------4---------------|
D|--------------------------------|--------------------------------|
                                                                     
G|0-------0---------------2-------|0---------------0---------------|
D|--------------------------------|--------------------------------|
A|--------------------------------|--------------------------------|
D|--------------------------------|--------------------------------|
                                                                     
G|0-------0---------------2-------|0---------------2---2---2-------|
D|--------------------------------|--------------------------------|
A|--------------------------------|--------------------------------|
D|--------------------------------|--------------------------------| 
                                                                    
G|--------------------------------|--------------------------------|
D|0-------0---------------0-------|4-------------------------------|
A|--------------------------------|----------------5---------------|
D|--------------------------------|--------------------------------|
                                                                     
G|--------------------------------|--------------------------------|
D|--------------------------------|4-------------------------------|
A|4-------4---------------4-------|----------------4---------------|
D|--------------------------------|--------------------------------|   
                                                                    
G|0-------0---------------2-------|0---0---0---0---0---0-----------|
D|--------------------------------|--------------------------------|
A|--------------------------------|--------------------------------|
D|--------------------------------|--------------------------------|
 
[Chorus]                                                           
G|0-------0-------0---2-----------|--------------------------------|
D|----------------------------0---|----0---0---0-------0-----------|
A|--------------------------------|--------------------------------|
D|--------------------------------|--------------------------------|
                                                                    
G|2-------2-----------2-----------|--------------------------------|
D|----------------------------2---|2---2---2---2---2---2-----------|
A|--------------------------------|--------------------------------|
D|--------------------------------|--------------------------------|
                                                                     
G|--------------------------------|--------------------------------|
D|2-------2-------2---1-------0---|----0---0---0---0---0-----------|
A|--------------------------------|--------------------------------|
D|--------------------------------|--------------------------------|
                                                                    
G|--------------------------------|--------------------------------|
D|4-------4-----------4-------2---|--------2---2-------------------|
A|--------------------------------|--------------------------------|
D|--------------------------------|--------------------------------|
 
[Middle 8]                                                          
G|--------------------------------|--------------------------------|
D|--------------------------------|--------------------------------|
A|--------------------------------|--------------------------------|
D|2-------2-----------2-------0---|0---0---0---0---0---0---0-------| 
                                                                    
G|--------------------------------|--------------------------------|
D|--------------------------------|--------------------------------|
A|--------------------------------|--------------------------------|
D|4-------4-----------4-------2---|--------2-------2-------2-------|
                                                                     
G|--------------------------------|--------------------------------|
D|--------------------------------|--------------------------------|
A|--------------------------------|--------------------------------|
D|2-------2-----------2-------0---|0---0---0---0---0---0---0-------|
                                                                     
G|--------------------------------|--------------------------------|
D|--------------------------------|--------------------------------|
A|--------------------------------|--------------------------------|
D|4-------4-----------4-------2---|2---2---2---2---2---2---2-------|
 
[Verse]                                                             
G|0-------0-------0---------------|--------------------------------|
D|--------------------3-------0---|--------0---0---0---0---2---2---|
A|--------------------------------|--------------------------------|
D|--------------------------------|--------------------------------|
                                                                     
G|2-------2-------2---0-----------|--------------------------------|
D|----------------------------2---|--------------------------------|
A|--------------------------------|--------------------------------|
D|--------------------------------|--------------------------------| 
                                                                    
G|0-------0-------0---------------|--------------------------------|
D|--------------------3-------0---|--------0---0---0---0---2---2---|
A|--------------------------------|--------------------------------|
D|--------------------------------|--------------------------------|
                                                                    
G|2-------2-------2---0-----------|--------------------------------|
D|----------------------------2---|--------------------------------|
A|--------------------------------|--------------------------------|
D|--------------------------------|--------------------------------|
                                                                    
G|0-------0-------0---------------|--------------------------------|
D|--------------------3-------0---|--------0---0---0---0---2---2---|
A|--------------------------------|--------------------------------|
D|--------------------------------|--------------------------------|
                                                                     
G|2-------2-------2---0-----------|--------------------------------|
D|----------------------------2---|--------------------------------|
A|--------------------------------|--------------------------------|
D|--------------------------------|--------------------------------|
 
[Chorus]                                                           
G|0-------0-------0---------------|--------------------------------|
D|--------------------3-------0---|--------0---0---0---0---2---2---|
A|--------------------------------|--------------------------------|
D|--------------------------------|--------------------------------| 
                                                                    
G|2-------2-------2---0-----------|--------------------------------|
D|----------------------------2---|--------------------------------|
A|--------------------------------|--------------------------------|
D|--------------------------------|--------------------------------| 
                                                                    
G|--------------------------------|----------------------------2---|
D|0-------0---------------0-------|0-------0-----------------------|
A|--------------------------------|--------------------------------|
D|--------------------------------|--------------------------------|
                                                                     
G|2-------2-----------------------|2-------2-----------------------|
D|--------------------------------|--------------------------------|
A|--------------------------------|--------------------------------|
D|--------------------------------|--------------------------------|
                                                                     
G|--------------------------------|--------------------------------|
D|0-------0-------0---------------|0-------0---0---0---0-----------|
A|------------------------2-------|------------------------2---2---|
D|--------------------------------|--------------------------------|
                                                                    
G|0-------0---------------0-------|0-------0---------------0---2---|
D|--------------------------------|--------------------------------|
A|--------------------------------|--------------------------------|
D|--------------------------------|--------------------------------| 
                                                                    
G|0-------0---------------2-------|0---------------2---------------|
D|--------------------------------|--------------------------------|
A|--------------------------------|--------------------------------|
D|--------------------------------|--------------------------------| 
                                                                    
G|--------------------------------|--------------------------------|
D|0-------0-------0-------0-------|4-------------------------------|
A|--------------------------------|----------------5---------------|
D|--------------------------------|--------------------------------| 
                                                                    
G|--------------------------------|--------------------------------|
D|1-------1-------1-------0-------|4-------------------------------|
A|--------------------------------|----------------5---------------|
D|--------------------------------|--------------------------------|
                                                                     
G|0-------0-----------------------|0-------------------------------|
D|------------------------0-------|--------------------------------|
A|--------------------------------|--------------------------------|
D|--------------------------------|--------------------------------|
                                                                    
G|0-------0---------------2-------|0---------------2---------------|
D|--------------------------------|--------------------------------|
A|--------------------------------|--------------------------------|
D|--------------------------------|--------------------------------| 
                                                                    
G|0-------------------------------|--------------------------------|
D|--------0---------------0-------|4-------------------------------|
A|--------------------------------|----------------5---------------|
D|--------------------------------|--------------------------------| 
                                                                    
G|--------------------------------|--------------------------------|
D|--------------------------------|4-------------------------------|  
A|4-------4---------------4-------|----------------4---------------|
D|--------------------------------|--------------------------------| 
                                                                    
G|0-------0---------------2-------|0---------------0---------------|
D|--------------------------------|--------------------------------|
A|--------------------------------|--------------------------------|
D|--------------------------------|--------------------------------| 
                                                                    
G|0-------0---------------2-------|0---------------2---2---2-------|
D|--------------------------------|--------------------------------|
A|--------------------------------|--------------------------------|
D|--------------------------------|--------------------------------|
                                                                     
G|--------------------------------|--------------------------------|
D|0-------0---------------0-------|4-------------------------------|
A|--------------------------------|----------------5---------------|
D|--------------------------------|--------------------------------|
                                                                     
G|--------------------------------|--------------------------------|
D|--------------------------------|4-------------------------------|
A|4-------4---------------4-------|----------------4---------------|
D|--------------------------------|--------------------------------|
                                                                    
G|0-------0---------------2-------|0---0---0---0---0---0-----------|
D|--------------------------------|--------------------------------|
A|--------------------------------|--------------------------------|
D|--------------------------------|--------------------------------|
 
[Chorus]                                                           
G|0-------0-------0---2-----------|--------------------------------|
D|----------------------------0---|----0---0---0-------0-----------|
A|--------------------------------|--------------------------------|
D|--------------------------------|--------------------------------|
                                                                     
G|2-------2-----------2-----------|--------------------------------|
D|----------------------------2---|2---2---2---2---2---2-----------|
A|--------------------------------|--------------------------------|
D|--------------------------------|--------------------------------|
                                                                     
G|--------------------------------|--------------------------------|
D|2-------2-------2---1-------0---|----0---0---0---0---0-----------|
A|--------------------------------|--------------------------------|
D|--------------------------------|--------------------------------|
                                                                    
G|--------------------------------|--------------------------------|
D|4-------4-----------4-------2---|--------2---2-------------------|
A|--------------------------------|--------------------------------|
D|--------------------------------|--------------------------------|
                                                                     
G|--------------------------------|--------------------------------|
D|2-------2-------2---1-------0---|----0---0---0---0---0-----------|
A|--------------------------------|--------------------------------|
D|--------------------------------|--------------------------------|
                                                                     
G|--------------------------------|--------------------------------|
D|4-------4-----------4-------2---|--------2---2-------------------|
A|--------------------------------|--------------------------------|
D|--------------------------------|--------------------------------|
 
[Outro]                                                            
G|--------------------------------|--------------------------------|
D|2-------2-------2---1-------0---|----0---0---0---0---0-----------|
A|--------------------------------|--------------------------------|
D|--------------------------------|--------------------------------| 
                                                                    
G|--------------------------------|--------------------------------|
D|4-------4-----------4-------2---|--------2---2-------------------|
A|--------------------------------|--------------------------------|
D|--------------------------------|--------------------------------|
                                                                    
G|0-------0-------0---------------|--------------------------------|
D|--------------------1-------0---|----0---0---0---0---0-----------|
A|--------------------------------|--------------------------------|
D|--------------------------------|--------------------------------|
                                                                    
G|2-------2-------2---------------|--------------------------------|
D|--------------------4-------2---|--------2---2-------------------|
A|--------------------------------|--------------------------------|
D|--------------------------------|--------------------------------|
                                                                     
G|0-------0-------0---------------|--------------------------------|
D|--------------------1-------0---|----0---0---0---0---0-----------|
A|--------------------------------|--------------------------------|
D|--------------------------------|--------------------------------|
                                                                     
G|2-------2-------2---------------|--------------------------------|
D|--------------------4-------2---|--------2---2-------------------|
A|--------------------------------|--------------------------------|
D|--------------------------------|--------------------------------|

            
            
Suggest correction
Creating personal tab
Creating personal tab
You can edit any tab online and save it as your Personal.

You can edit, replace or remove any tab part or add personal notes – all changes will be seen only by you.

Personal tabs can be accessed anytime from any device, even offline.
Learn more »
Give kudos to tab author, rate the tab!
1 2 3 4 5
comments
print report bad tab
1 comment total.
0 reply
JujuCB 10 Jul 11, 2017 02:47 PM

Great tab, thank you so much! :)

guest
You may want to rate the tab now too:
select rating
Wanna post a correction for this tab? Suggest correction