Oops, an error
Loading. Please wait.

Si No Te Hubieras Ido chords

37 views 1 this week
no commentswrite comment
1 2 3 4 5
3 more votes to show rating
add to favorites
×
Save as Personal and add changes to this tab that will be seen only by you. Learn more ›
×
You can save this tab as Personal to edit and correct it or add notes. All changes will be seen only by you. Learn more »
launch autoscroll
font size
0
reset
transpose
0
reset
simplify chords
display chords
guitar tuner
edit
Autoscroll
slow
fast
+/-
esc
set tempo
stop
Strumming
There is no strumming pattern for this song yet. and get +5 IQ
Acordes: Am F G C E7
INTRO:
                 Am                  Am
e--------------------I------------------
B-------------1------I----1--0----------
G------0---2-----2---I---------2--0-----
D---2----------------I---------------2--
A--------------------I------------------
E--------------------I------------------

                 Am                  Am
e--------------------I------------------
B-------------1------I----1--0----------
G-------0---2-----2--I---------2--0-----
D----2---------------I---------------2--
A--------------------I------------------
E--------------------I------------------

Am                F                 G       C
TE EXTRAÑO MAS Q NUNCA Y NO SE Q HACER
Am               F              G     C
DESPIERTO Y T RECUERDO AL AMANECER
 G                               C
ME ESPERA OTRO DIA DE VIVIR SIN TI
E7                  Am
EL ESPEJO NO MIENTE
  G  F       G                          C
ME VEO TAN DIFERENTE A CUANDO ESTABAS TU

Am             F                  G       C
LA GENTE PASA Y PASA SIEMPRE TAN IGUAL
Am              F              G       C
EL RITMO DE LA VIDA ME PARECE MAL
G                                   C
SI QUE ERA DIFERENTE CUANDO ESTABAS TU
Am  G   F       G                       C
SI QUE ERA DIFERENTE A CUANDO ESTABAS TU  (NO NO NO NONONO AHH!)

G                                     C
NO HAY NADA MAS DIFICIL QUE VIVIR SIN TI
G                                    C
SUFRIENDO EN LA ESPERA DE VERTE LLEGAR
G                                  C
EL FRIO DE MI CUERPO PREGUNTA POR TI
 E7                  Am  G
Y NO SE DONDE ESTAS
F             G                       C
SI NO TE HUBIERAS IDO SERIA TAN FELIZ

                 Am                  Am
e--------------------I------------------
B-------------1------I----1--0----------
G------0---2-----2---I---------2--0-----
D---2----------------I---------------2--
A--------------------I------------------
E--------------------I------------------

                 Am                  Am
e--------------------I------------------
B-------------1------I----1--0----------
G-------0---2-----2--I---------2--0-----
D----2---------------I---------------2--
A--------------------I------------------
E--------------------I------------------

Am                F                 G       C
TE EXTRAÑO MAS Q NUNCA Y NO SE Q HACER
Am               (F)              G     C
DESPIERTO Y T RECUERDO AL AMANECER
 G                               C
ME ESPERA OTRO DIA DE VIVIR SIN TI
E7                Am
EL ESPEJO NO MIENTE
  G   F         G                        C
SI QUE ERA DIFERENTE A CUANDO ESTABAS TU  (NO NO NO NONONO AHH!)

G                                     C
NO HAY NADA MAS DIFICIL QUE VIVIR SIN TI
G                                    C
SUFRIENDO EN LA ESPERA DE VERTE LLEGAR
G                                  C
EL FRIO DE MI CUERPO PREGUNTA POR TI
 E7                  Am  G
Y NO SE DONDE ESTAS
F                G                  C
SI NO TE HUBIERAS IDO SERIA TAN FELIZ
F                G                  C
SI NO TE HUBIERAS IDO SERIA TAN FELIZ  (NO NO NO NONONO AHH!)
F                G                  C
SI NO TE HUBIERAS IDO SERIA TAN FELIZ  (NO NO NO NONONO AHH!)
F
SI NO TE HUBIERAS IDO SERIA TAN FELIZ

Cualquier error a mi correo para verificar y corregir gracias

            
            
Suggest correction
Creating personal tab
Creating personal tab
You can edit any tab online and save it as your Personal.

You can edit, replace or remove any tab part or add personal notes – all changes will be seen only by you.

Personal tabs can be accessed anytime from any device, even offline.
Learn more »
Give kudos to tab author, rate the tab!
1 2 3 4 5
comments
print report bad tab
guest
Wanna post a correction for this tab? Suggest correction