Oops, an error
Loading. Please wait.

Volverte A Ver Tab

version 2
version 2

Whole song

1,057 views 1 this week
no commentswrite comment
1 2 3 4 5
please rate
add to favorites
launch autoscroll
font size
0
reset
how to read this tab
guitar tuner
Autoscroll
slow
fast
+/-
esc
set tempo
stop
Help us to improve Ultimate-Guitar.com Take our survey!
×
Author
-------------------------------------------------------------------------------
                             Volverte a Ver - Chaucha Kings & Widinson
-------------------------------------------------------------------------------
Tabbed by: estebanx17
Email: estebanx_14@hotmail.com

Tuning: Standard
Intro Distortion Guitar: x 2
e|---------------------------------------------------------------|
B|------10-----8---8-8---10----8---8-8---10----8---8-8-----------|
G|---------9-----------9-----9---------9----9-----------11--9~~--|
D|---------------------------------------------------------------|
A|---------------------------------------------------------------|
E|---------------------------------------------------------------|

Verse: A - D - B - A x2

Chorus: x 2

e|----------------------------------------------|
B|----------------------------------------------|
G|--------------------------5-------------------|
D|--------5---------5-------7--X 6----7/8-10-8--|
A|--------7--X 6----5--X 6--7-------------------|
E|--------7---------3---------------------------|


Bridge:
e|---------------------------------------------------------------|
B|------10-----8---8-8---10----8---8-8---10----8---8-8-----------|
G|---------9-----------9-----9---------9----9-----------11--9~~--|
D|---------------------------------------------------------------|
A|---------------------------------------------------------------|
E|---------------------------------------------------------------|

Verse: A - D - B - A x2

Chorus: x 2

e|----------------------------------------------|
B|----------------------------------------------|
G|--------------------------5-------------------|
D|--------5---------5-------7--X 6----7/8-10-8--|
A|--------7--X 6----5--X 6--7-------------------|
E|--------7---------3---------------------------|

SOLO (Juan Fernando Velasco): x 2


e|-----------------------------------------------------------------------------------------------|
B|---------10--13--15^^--17-13-17-13-15--15-15-15-12-15-12-13--13-13-15-13-13p12h13--10-12-9-----|
G|9--9-9-9------------------------------------------------------------------------------------9--|
D|-----------------------------------------------------------------------------------------------|
A|-----------------------------------------------------------------------------------------------|
E|-----------------------------------------------------------------------------------------------|

Chorus: Untill the end of the song

e|----------------------------------------------|
B|----------------------------------------------|
G|--------------------------5-------------------|
D|--------5---------5-------7--X 6----7/8-10-8--|
A|--------7--X 6----5--X 6--7-------------------|
E|--------7---------3---------------------------|


| /  slide up
| \  slide down
| h  hammer-on
| p  pull-off
| ~  vibrato
| ^  Bend
| x  Mute note
===============================================================================
Suggest correction
What's this?
You can suggest a correction to this tab. Community and Mods will review your correction and vote to approve or reject it.
comments
We did not receive enough feedback on this tab! Please rate:
print report bad tab
1 2 3 4 5
guest
You may want to rate the tab now too:
select rating
Please do not post tabs as comments. Select "correction" instead!