Oops, an error
Loading. Please wait.

La Llorona Chords

version 2
version 2

Whole song

262 views 6 this week
no commentswrite comment
1 2 3 4 5
3 more votes to show rating
add to favorites
launch autoscroll
font size
0
reset
transpose
0
reset
simplify chords
display chords
guitar tuner
Autoscroll
slow
fast
+/-
esc
set tempo
stop
Help us to improve Ultimate-Guitar.com Take our survey!
×
Author
Difficulty
intermediate
6 ------------------------------------------------------------------------------------------
5 ------------------------------------------------------------------------------------------
4 ---------------------------------------------------------------------------------6--5--6--
3 ----0----5--4--5-----------------------5--3--2--3--5--------------5--3-------------3--5---
2 --------------------3--4------6--4--3-------------------2--6--4--3------------------------
1 -----------------------------3------------------------------------------------------------

6 ---------------------------------------------------||
5 ---------------------------------------------------||
4 ---------------------------------5-----------------||
3 --5---5--4--5--------4--------------------------5--||
2 -------3----------3----3-------------------6--4--3-||
1 -----------------------------------------3--4--3---||



CHORDS:
3rd fret (Cm)       6 fret (Bb)          4 fret (C#m)         3 fret (G7)
335543               688766              466544                354333

Cm               Fm
Todos me dicen el negro, llorona
Cm            G                              
negro pero cariñoso  [x2]  
Cm               Bb
Yo soy como el chile verde, llorona
C#m            G7                                  
picante pero sabroso    [x2] 
                          
Cm           Fm
Ay de mí,  llorona, llorona,
Cm              G                              
llorona llévame al rio.  [x2]
Cm           Bb
Tápame con tu rebozo llorona 
C#m                  G7                                 
porque me muero de frío.  [x2] 

[INTRO]

Cm                 Fm
No sé que tienen las flores llorona 
Cm             G
las flores del campo santo  [x2] 
Cm                  Bb
Que cuando las mueve el viento llorona
C#m            G7
parece que están llorando  [x2] 

Cm        Fm            
Ay de mí llorona, llorona,
Cm      G
llorona llévame al río   [x2]
Cm           Bb
Tapame con tu rebozo llorona 
C#m                  G7                                 
porque me muero de frío.   [x2]

Cm            Fm
La luna es una mujer, llorona
Cm              G
y por eso el sol de España   [x2]
Cm           Bb
Anda que bebe los montes, llorona
C#m                  G7   
porque la luna lo engaña    [x2]

Cm        Fm
Ay de mi llorona, llorona, 
Cm              G
llorona de un campo lirio   [x2]
Cm             Bb       
El que no sabe de amores llorona
C#m                G7
no sabe lo que es martirio   [x2]

[INTRO]

Cm        Fm
Yo te soñaba dormida llorona,
Cm              G
te estabas quieta   [x2]
Cm             Bb   
Pero en llegando el olvido llorona
C#m                G7
soñé que estabas despierta   [x2]

Cm        Fm
Si porque te quiero quieres llorona
Cm              G
quieres que te quiera más   [x2]
Cm             Bb   
Si ya te he dado la vida llorona
C#m                G7
¿Qué más quieres? ¡Quieres más!


[OTRAS ESTROFAS PARA AÑADIR]

Cm                 Fm
a un santo cristo de fierro llorona
   Cm            G
mis penas le conte yo  [x2]
Cm                 Bb
cuales no serian mis penas llorona
      C#m            G7
que el santo cristo lloró  [x2]


Cm                  Fm
Dos besos llevo en el alma llorona
     Cm            G
que no se apartan de mi   [x2]
   Cm       Bb
el ultimo de madre llorona
     C#m            G7
y el primero que te di   [x2]

 Cm          Fm                 
hay de mi llorona, llorona, 
Cm                 G
llorona llévame al rio   [x2]
  Cm          Bb                          
Tapame con tu reboso llorona
 C#m        G7
porque me muero de frío   [x2]
Suggest correction
Give kudos to tab author, rate the tab!
1 2 3 4 5
comments
print report bad tab
guest
You may want to rate the tab now too:
select rating
Wanna post a correction for this tab? Suggest correction