Oops, an error
Loading. Please wait.

Lo Dejaría Todo Tab

version 1
version 1

Whole song

9,944 views 1 this week
no commentswrite comment
1 2 3 4 5
accurate
x 3
add to favorites
launch autoscroll
font size
0
reset
how to read this tab
guitar tuner
Autoscroll
slow
fast
+/-
esc
set tempo
stop
Help us to improve Ultimate-Guitar.com Take our survey!
×
Contributor
Esta cancion me gusta mucho.....


Intro.

1.------------------------|
2.-----------------5-7-8~-|
3.--5/7-5-----------------|
4.--------7-5-------------|
5.------------7-5~--------|
6.------------------------|

1-5-5-4-4-2-2-0-----------|
2-7-7-5-5-4-4-2-----------|
3-------------------------|
4-------------------------|
5-------------------------|
6-------------------------|

1---------5-5-4-4-2-2-0---|
2-5-7-8~--7-7-5-5-4-4-2---|
3-------------------------|
4-------------------------|
5-------------------------|
6-------------------------|

1---------5-5-4-4-2-2-0---|
2-5-7-8~--7-7-5-5-4-4-2---|
3-------------------------|
4-------------------------|
5-------------------------|
6-------------------------|

1---------5-5-4-4-2-2-0---|
2-5-7-8~--7-7-5-5-4-4-2---|
3-------------------------|
4-------------------------|
5-------------------------|
6-------------------------|

Am                                 D
 He intentado casi todo para convencerte,
G                                                C
 Mientras el mundo se derrumba todo acá en mis pies.

Am                                          D
 Mientras aprendo de esta soledad que desconozco,
G                                              C
 Me vuelvo a preguntar quizás qué si sobre viviré.

             Am                                     D
 Por que sin ti me queda la conciencia, helada y vacía.
             G                                       C
 Por que sin ti me he dado cuenta amor, que no renaceré,

              Am                                D
 Por que yo he ido más allá del límite de la desolación.
   C                     G                  Am
 Mi cuerpo, mi mente y mi alma ya no tienen conexión,
          D
 Y yo te juro que...


 (CORO)
             G
 Lo dejaría todo por que te quedaras,
               C
 Mi credo mi pasado mi religión.
                   D
 Después de todo estás rompiendo nuestros lazos,
              G
 Y dejas en pedazos este corazón.
                   C
 Mi piel también la dejaría,
                                 G          D Em
 Mi nombre, mi fuerza hasta mi propia vida-a.
                  Am                     D
 Y qué más da perde-er, si te llevas el todo,
         C   G
 Mi fe, ¿Qué no dejaría?

1.------------------------|
2.-----------------5-7-8~-|
3.--5/7-5-----------------|
4.--------7-5-------------|
5.------------7-5~--------|
6.------------------------|

1-5-5-4-4-2-2-0-----------|
2-7-7-5-5-4-4-2-----------|
3-------------------------|
4-------------------------|
5-------------------------|
6-------------------------|

1---------5-5-4-4-2-2-0---|
2-5-7-8~--7-7-5-5-4-4-2---|
3-------------------------|
4-------------------------|
5-------------------------|
6-------------------------|

1---------5-5-4-4-2-2-0---|
2-5-7-8~--7-7-5-5-4-4-2---|
3-------------------------|
4-------------------------|
5-------------------------|
6-------------------------|

1---------5-5-4-4-2-2-0---|
2-5-7-8~--7-7-5-5-4-4-2---|
3-------------------------|
4-------------------------|
5-------------------------|
6-------------------------|

Am                                           D
 Duelen más tus cosas buenas cuando estás ausente,
G                                       C
 Yo se que es demasiado tarde para remediar.


Am                                       D
 No me queda bien valerme de diez mil excusas,
G                                       C
 Cuando definitivamente se que ahora te vas.

             Am                                       D
 Aunque te vuelva a repetir que estoy muriendo día a día,
             G                                     C
 Aunque también estés muriendo tú, no me perdonaras.

            Am                                 D
 Aunque sin ti haya llegado al limite de la desolación,

      C                    G                 Am
 Mi cuerpo, mi mente y mi alma ya no tienen conexión,

          D
 Sigo muriéndome.

             G
 Lo dejaría todo por que te quedaras,
               C
 Mi credo mi pasado mi religión.
                   D
 Después de todo estás rompiendo nuestros lazos,
              G
 Y dejas en pedazos este corazón.
                   C
 Mi piel también la dejaría,
                                 G          D Em
 Mi nombre, mi fuerza hasta mi propia vida-a.
                  Am                     D
 Y qué más da perde-er, si te llevas el todo,

 Mi fe.

             G
 Lo dejaría todo por que te quedaras,
               C
 Mi credo mi pasado mi religión.
                   D
 Después de todo estás rompiendo nuestros lazos,
              G
 Y dejas en pedazos este corazón.
                   C
 Mi piel también la dejaría,
                                 G          D Em
 Mi nombre, mi fuerza hasta mi propia vida-a.
                  Am                     D
 Y qué más da perde-er, si te llevas el todo,

 Mi fe.

              G
 Lo dejaría todo por que te quedaras,
               C
 Mi credo mi pasado mi religión.
                   D
 Después de todo estás rompiendo nuestros lazos,
              G
 Y dejas en pedazos este corazón.
                   C
 Mi piel también la dejaría,
                                 G          D Em
 Mi nombre, mi fuerza hasta mi propia vida-a.
                  Am                     D
 Y qué más da perde-er, si te llevas el todo,

 mi fe.
comments
We did not receive enough feedback on this tab! Please rate:
print report bad tab
1 2 3 4 5
I want to post or [tab]
guest
You may want to rate the tab now too:
select rating
Please do not post tabs as comments. Select "correction" instead!