Oops, an error
Loading. Please wait.

360 tab

71 views 1 this week
no commentswrite comment
1 2 3 4 5
3 more votes to show rating
add to favorites
×
Save as Personal and add changes to this tab that will be seen only by you. Learn more ›
×
You can save this tab as Personal to edit and correct it or add notes. All changes will be seen only by you. Learn more »
launch autoscroll
font size
0
reset
how to read this tab
guitar tuner
edit
Autoscroll
slow
fast
+/-
esc
set tempo
stop
Pues aquí está esta tab que me pidieron,
le faltan algunos detalles pero seguro les sirve de algo.

INTRO

e|---------------------------------------------------------
B|------------7--7h8-7-----7--------------7--7h8-7---10-10-
G|-6/7--7-7-9------------9-----9-7--7-7-9----------9-------
D|---------------------------------------------------------
A|---------------------------------------------------------
E|---------------------------------------------------------


e|------------------------------------------------------
B|------------7--7h8-7---7------------------------------
G|--7--7-7-9-----------9-----7h9-9-9-9-9-9--7--7-7-6----
D|------------------------------------------------------
A|------------------------------------------------------
E|------------------------------------------------------


e|-------------------7----------------------------------
B|-------------7?10----10-8-7---------------------------
G|-7--7-7-7-9-----------------9-7--7--7-7-7-6--4--7-6-4-
D|------------------------------------------------------
A|------------------------------------------------------
E|------------------------------------------------------


e|-----------------------------------------------------------
B|----------------------7?7h8-7------------------------------
G|--7-6-4/9~~/0----/7-9---------9-6?6h7~~~~(p6h7p6h7p6)------
D|-----------------------------------------------------------
A|-----------------------------------------------------------
E|-----------------------------------------------------------

La otra guitarra lleva los acordes del verso
pero con un ritmo un poco diferente

VERSO

e|-----------------------------------------------------------
B|-----------------------------------------------------------
G|--7-77777777777777-----------------------------------------
D|--7-77777777777777--9-99999999999999--7-77777777777777-----
A|--5-55555555555555--9-99999999999999--7-77777777777777-----
E|--------------------7-77777777777777--5-55555555555555-----
      ..............    ..............    ..............

e|--------------------
B|--------------------
G|--------------------   se repite otra vez pero el ultimo acorde
D|--5-555555--77-77-7-   lo tocas con el ritmo que lleva lo demas
A|--5-555555--77-77-7-
E|--3-333333--55-55-5-
      ......  .. .. .


CORO

e|-------------------------------------------------------
B|-------------------------------------------------------
G|-------------------------------------------------------
D|--5-555555--7-777777--5-55555555555555--7777--5-555555-
A|--5-555555--7-777777--5-55555555555555--7777--5-555555-
E|--3-333333--5-555555--7-77777777777777--5555--3-333333-


e|------------------------------------------------------------
B|------------------------------------------------------------
G|------------7-777777-----------------------------7777--6666-
D|--7-777777--7-777777--99-9-9/5-555555--7-777777--7777--6666-
A|--7-777777--5-555555--99-9-9/5-555555--7-777777--5555--4444-
E|--5-555555------------77-7-7/3-333333--5-555555-------------
                        .. .

e|-----------------------------------------------------------
B|-----------------------------------------------------------
G|--4444--6666--------------------/12-12-12-12-12-12-12-12---
D|--4444--6666--5555555555555555--/-X--X--X--X--X--X--X--X---
A|--2222--4444--5555555555555555--/10-10-10-10-10-10-10-10---
E|--------------3333333333333333-----------------------------


Se repite el verso y el coro y luego va esto

e|--------------------------
B|--------------------------
G|-(7-7-7-7-7~)/11/-9-/-7/0-   se repite varias veces pero
D|--X-X-X-X-X---X---X---X---   sin lo que esta en paréntesis
A|-(5-5-5-5-5~)/9-/-7-/-5/0-
E|--------------------------
    . . . .


e|-----------------------------       ---------------------------
B|-----------------7-----7-----       ---------------7-----7-----
G|--7--7-7-7-7--7----9-7----9-- (X 2) -9--9-9-9-9--9---9-7----9--
D|-----------------------------       ---------------------------
A|-----------------------------       ---------------------------
E|-----------------------------       ---------------------------


e|----------------------
B|---8-7-----8-7--------
G|-------7-7-----9-6h7~-  dejas sonando la ultima nota con un delay
D|----------------------
A|----------------------
E|----------------------

Se repite el coro y terminas asi

e|---------------------------------
B|---------------------------------
G|--7-7-7-7-7~/11/-9-/-7-/-9-/-7/0-
D|--X-X-X-X-X--X---X---X---X---X---
A|--5-5-5-5-5~/9-/-7-/-5-/-7-/-5/0-
E|---------------------------------
    . . . .

            
            
Suggest correction
Creating personal tab
Creating personal tab
You can edit any tab online and save it as your Personal.

You can edit, replace or remove any tab part or add personal notes – all changes will be seen only by you.

Personal tabs can be accessed anytime from any device, even offline.
Learn more »
Give kudos to tab author, rate the tab!
1 2 3 4 5
comments
print report bad tab
guest
Wanna post a correction for this tab? Suggest correction