Oops, an error
Loading. Please wait.

El Libro De Los Abrazos Bass Tab

765 views 3 this week
no commentswrite comment
1 2 3 4 5
please rate
add to favorites
launch autoscroll
font size
0
reset
guitar tuner
Autoscroll
slow
fast
+/-
esc
set tempo
stop
Help us to improve Ultimate-Guitar.com Take our survey!
×
Contributor
Difficulty
novice
-----------------------------------------------------------------------------
                    El libro de los abrazos – Che Sudaka
-----------------------------------------------------------------------------

Tabbed By : Sharky – in 4 and 5 string
e-mail: trekisaanmijn@gmail.com

Tuning: Standard

Simple line to learn, really chill song,
(my first tab, i believe it`s fairly ok, but give me any comment if you like!! Ciao)

Part 1

G|---------------------------------------------------------------------|
D|---------------------------------------------------------------------|
A|--------5-5-5---------9-9-9---------7-7-7---------7-7-7--------------|   
E|--3---3---------7---7---------5---5---------5---5--------------------|2X

G|---------------------------------------------------------------------|
D|--------9-9-----------7-7--------------------------------------------|
A|--7---7-----7---5---5-----5---------7-7-7---------7-7-7--------------|
E|------------------------------5---5---------5---5--------------------|    

G|---------------------------------------------------------------------|
D|---------------------------------------------------------------------|
A|--------5-5-5---------9-9-9---------7-7-7---------7-7-7--------------|   
E|--3---3---------7---7---------5---5---------5---5--------------------| 

Part 2

G|---------------------------------------------------------------------|
D|---------------------------------------------------------------------|
A|--------5-5-5---------9-9-9---------7-7-7---------7-7-7--------------|   
E|------3-------------7-------------5-------------5--------------------|2X

G|---------------------------------------------------------------------|
D|--------9-9-----------7-7--------------------------------------------|
A|------7-----7-------5-----5---------7-7-7---------7-7-7--------------|
E|----------------------------------5-------------5--------------------|   

G|---------------------------------------------------------------------|
D|---------------------------------------------------------------------|
A|--------5-5-5---------9-9-9---------7-7-7---------7-7-7--------------|   
E|------3-------------7-------------5-------------5--------------------|

 



(5 string)

Part 1

G|---------------------------------------------------------------------|
D|---------------------------------------------------------------------|
A|-------------------------9-9-9--------7-7-7---------7-7-7------------|
E|--------10-10-10---7---7--------5---5---------5---5------------------|
B|--8---8--------------------------------------------------------------|2X

G|---------------------------------------------------------------------|
D|---------9--9------------7-7-----------------------------------------|
A|--7---7-------7----5---5-----5--------7-7-7---------7-7-7------------|
E|--------------------------------5---5---------5---5------------------|    
B|---------------------------------------------------------------------|

G|---------------------------------------------------------------------|
D|---------------------------------------------------------------------|
A|-------------------------9-9-9--------7-7-7---------7-7-7------------|
E|--------10-10-10---7---7--------5---5---------5---5------------------|
B|--8---8--------------------------------------------------------------|

Part 2

G|---------------------------------------------------------------------|
D|---------------------------------------------------------------------|
A|-------------------------9-9-9--------7-7-7---------7-7-7------------|   
E|--------10-10-10-------7------------5-------------5------------------|  
B|------8--------------------------------------------------------------|2X

G|---------------------------------------------------------------------|
D|---------9--9------------7-7-----------------------------------------|
A|------7--------7-------5-----5--------7-7-7----------7-7-7-----------|
E|------------------------------------5--------------5-----------------|   
B|---------------------------------------------------------------------|

G|---------------------------------------------------------------------|
D|---------------------------------------------------------------------|
A|-------------------------9-9-9--------7-7-7----------7-7-7-----------|   
E|--------10-10-10-------7------------5--------------5-----------------|  
B|------8--------------------------------------------------------------|

And again and again...... ;-P

http://www.chesudaka.com
=============================================================================
Suggest correction new What's this?
You can suggest a correction to this tab. Community and Mods will review your correction and vote to approve or reject it.
comments
We did not receive enough feedback on this tab! Please rate:
print report bad tab
1 2 3 4 5
guest
You may want to rate the tab now too:
select rating
Please do not post tabs as comments. Select "correction" instead!