Oops, an error
Loading. Please wait.

Launch Off To War bass

version 1
version 1

Whole song

Interactive

798 views 1 this week
2 commentsread comments
1 2 3 4 5
3 more votes to show rating
add to favorites
×
Save as Personal and add changes to this tab that will be seen only by you. Learn more ›
×
You can save this tab as Personal to edit and correct it or add notes. All changes will be seen only by you. Learn more »
launch autoscroll
font size
0
reset
guitar tuner
edit
Autoscroll
slow
fast
+/-
esc
set tempo
stop
alright now little boys and girls here are the tabs...

Intro: (6x)
G: --------------------------------------
D: --------------------------------------
A: ---------------7-7777-----------------
E: -9-9999-7-7777--------4-4444----------

Verse: (
G: ---------------------------------------
D: ---------------------------------------
A: ---------------------7-77--------------
E: -9-99-4-44-5-55-5-55------7-77-9-9-7-9-
                       
(repeat -7-77-... after the 5th time)

Chorus: (same as the intro) (4x)

oh yeah...tcurtis, your tab sucks

            
            
Suggest correction
Creating personal tab
Creating personal tab
You can edit any tab online and save it as your Personal.

You can edit, replace or remove any tab part or add personal notes – all changes will be seen only by you.

Personal tabs can be accessed anytime from any device, even offline.
Learn more »
Give kudos to tab author, rate the tab!
1 2 3 4 5
comments
print report bad tab
2 comments total.
0 reply
Tcurtis 165 Jun 26, 2004 08:00 PM

oh yea....*** you

0 reply
Dark_Adict 10 Oct 03, 2007 09:05 PM

i dont think your verse is right it should just be

A-------------------77----------------------------------|
E----99--44--55-55------77--9-9-7-9---------------------|

and u missed the outro which is just


E---9-9-7-9--|

guest
Wanna post a correction for this tab? Suggest correction