Oops, an error
Loading. Please wait.

A Place In France tab

58 views 3 this week
no commentswrite comment
1 2 3 4 5
3 more votes to show rating
add to favorites
×
Save as Personal and add changes to this tab that will be seen only by you. Learn more ›
×
You can save this tab as Personal to edit and correct it or add notes. All changes will be seen only by you. Learn more »
launch autoscroll
font size
0
reset
how to read this tab
guitar tuner
edit
Autoscroll
slow
fast
+/-
esc
set tempo
stop
[Intro]

   B
e|---------------------------------------------------------------------------|
B|---------------------------------------------------------------------------|
G|-----2b------2b-------2-----------2-----------2------0-2-4-2-0-------------|
D|-2-4-----2-4------2-4---4-4---2-4---4-4---2-4---4-4------------4-----------|
A|---------------------------------------------------------------------------|
E|---------------------------------------------------------------------------|

e|---------------------------------------------------------------------------|
B|--------------------------------2------------------------------------------|
G|--------------------------------2------------------------------------------|
D|--------------------------------2------------------------------------------|
A|---------2-3-4---------2-3-4----0------------------------------------------|
E|-0-2-3-4-------0-2-3-4-----------------------------------------------------------|

[Verse]

A
There's a place in France where we could meet
A
Where the girls all dance to a different beat
        F#               F#
So let's go tonight, let's go tonight

[Verse]

A
Don't you like to ride in limousines?
A
I could show you a million different scenes
F#                  F#
At the show tonight, let's go tonight


Just one thing will stop you now!

   C#   D
e|------------------------------------------------------------------------|
B|------------------------------------------------------------------------|
G|------------------------------------------------------------------------|
D|-6/7--7-7---6/7--7-7---6/7--7-7---6/7--7-7------------------------------|
A|-4/5--5-5---4/5--5-5---4/5--5-5---4/5--5-5------------------------------|
E|------------------------------------------------------------------------|


[Chorus]

       E                 G
Your mama won't let you out tonight
      E            A7sus       D
Your mama won't let you outta sight
E                      G
Mama won't let you, rock n' roll
E                      A7sus        D
Mama won't let you, 'cause she's got control


[Bridge]

   B      C#    D    Eb     E     F          F#        G     
e|------------------------------------------------------------------------|
B|------------------------------------------------------------------------|
G|------------------------------------------------------------------------|
D|-4-4-4-6-6-6-7-7-7-8-8-8-9-9-9-10-10-10-11-11-11-12-12-12---------------|
A|-2-2-2-4-4-4-5-5-5-6-6-6-7-7-7-8--8--8--9--9--9--10-10-10---------------|
E|------------------------------------------------------------------------|

B
She don't like what we all do
         C#                   D
That's unless she's doin' it too
Eb    E            F     F# 
So go put on your dancin' shoes
G
And let's do it! Let's do it! Do it!

[Verse]

A
Some things I do I shouldn't repeat
A
What the hell? I'm human, doesn't matter to me
F#                   F#
If you disagree, well that's fine with me
A
So let's play our cards, I'll bet we win
A
We all feel good drinkin' carnal sin
F#                   F#       
At the show tonight, let's go tonight

Just one thing will stop you now!
e|------------------------------------------------------------------------|
B|------------------------------------------------------------------------|
G|------------------------------------------------------------------------|
D|-6/7--7-7---6/7--7-7---6/7--7-7---6/7--7-7------------------------------|
A|-4/5--5-5---4/5--5-5---4/5--5-5---4/5--5-5------------------------------|
E|------------------------------------------------------------------------|


[Chorus]

       E                 G
Your mama won't let you out tonight
      E            A7sus       D
Your mama won't let you outta sight
E                      G
Mama won't let you, rock n' roll
E                      A7sus        D
Mama won't let you, 'cause she's got control


[Bridge]

   B      C#    D    Eb     E     F          F#        G     
e|------------------------------------------------------------------------|
B|------------------------------------------------------------------------|
G|------------------------------------------------------------------------|
D|-4-4-4-6-6-6-7-7-7-8-8-8-9-9-9-10-10-10-11-11-11-12-12-12---------------|
A|-2-2-2-4-4-4-5-5-5-6-6-6-7-7-7-8--8--8--9--9--9--10-10-10---------------|
E|------------------------------------------------------------------------|

B
She can't change if she wanted to
C#                   D  Eb
She'll be the same at 72
E                F          F#
All I care about is me and you
G
So let's do it! Let's do it! Do it! Woo!


[Chorus]
   
    E                 G
Your mama won't let you out tonight
      E            A7sus       D
Your mama won't let you outta sight
E                      G
Mama won't let you, rock n' roll
E                      A7sus        D
Mama won't let you, 'cause she's got control
E                       G
Your mama won't let you out tonight




            
            
Suggest correction
Creating personal tab
Creating personal tab
You can edit any tab online and save it as your Personal.

You can edit, replace or remove any tab part or add personal notes – all changes will be seen only by you.

Personal tabs can be accessed anytime from any device, even offline.
Learn more »
Give kudos to tab author, rate the tab!
1 2 3 4 5
comments
print report bad tab
guest
You may want to rate the tab now too:
select rating
Wanna post a correction for this tab? Suggest correction