Oops, an error
Loading. Please wait.

Dancing The Night Away chords

276 views 3 this week
no commentswrite comment
1 2 3 4 5
3 more votes to show rating
add to favorites
×
Save as Personal and add changes to this tab that will be seen only by you. Learn more ›
×
You can save this tab as Personal to edit and correct it or add notes. All changes will be seen only by you. Learn more »
launch autoscroll
font size
0
reset
transpose
0
reset
simplify chords
display chords
guitar tuner
edit
Autoscroll
slow
fast
+/-
esc
set tempo
stop
Strumming
There is no strumming pattern for this song yet. and get +5 IQ
-------------------------------------------------------------------------------
                    Dancing the Night Away-Cheap Trick
-------------------------------------------------------------------------------
Tabbed by:Nick V.
E-mail:BlindTerry333@gmail.com

From 1983's Next Position Please.

Tuning:EADGBE

Intro [x4]

  Dancing the night away...               
e|---------------------------------------------------------------------------|
B|------------------------14--14---------------------------------------------|
G|------------------------14--14---------------------------------------------|
D|-------11-12--11--11----14--14---------------------------------------------|
A|-12-14------------------12--12---------------------------------------------|
E|---------------------------------------------------------------------------|


Chorus:


  Dancing the night away...                x4
e|---------------------------------------------------------------------------|
B|------------------------14--14---------------------------------------------|
G|------------------------14--14---------------------------------------------|
D|-------11-12--11--11----14--14---------------------------------------------|
A|-12-14------------------12--12---------------------------------------------|
E|---------------------------------------------------------------------------|


  Dancing the night away...               x1
e|---------------------------------------------------------------------------|
B|--------------------------7--7---------------------------------------------|
G|-------11-12-11-11--------7--7---------------------------------------------|
D|-12-14--------------------7--7---------------------------------------------|
A|--------------------------5--5---------------------------------------------|
E|---------------------------------------------------------------------------|


                       A A
Dancing the night away
                       A A
Dancing the night away
                       A A
Dancing the night away
                       A A
Dancing the night away


E (note)
So you want to believe
Everything that you read
                                       A
And you think that you're makin' the grade
                Asus             D
And just when you're getting it made
                  E
You're still in love with her


E (note)
She'd love you to kiss her
Hopin' you'll miss her
                             A
By takin' your mind off the load
            Asus             D
Just when you're ready to go
               E
You turn your back on her
A                                      
You just got your mind on the things ahead
D                       B
At last you're gonna be free
E
You'll only miss her
Just after you kiss her


                       A A
Dancing the night away
                       A A
Dancing the night away
                       A A
Dancing the night away
                       D D
Dancing the night away

 
E
So you turn on the smiles
'Cause you think of the time
                        A
And nobody knows who you are
     Asus              D
You don't think you'll get very far
                E
I don't even know your name


E
At last they accept you in case you go next year
D                         A
And ask you to reach for the sky
Asus              A           D          
And just when you're ready to die
                  E
They turn their back on you
A                               
So they put you on ice in survival hotel
D                                B
And wish you would die from the cold
E
When all you want is a night alone

                       A A
Dancing the night away
                       A A
Dancing the night away
                       A A
Dancing the night away
                       D D
Dancing the night away
                       D D
Dancing the night away

B  A   D  E

B    E
Dancing, and the song you sing
D    A                E
Dancing, every move you make
B    E
Dancing, makes my body god 
D     A
Dancing, right across the floor
B     E
Dancing
D     A
Dancing
B     E
Dancing

E (note)
She'd love you to kiss her
Hopin' you'll miss her
                             A
By takin' your mind off the load
            Asus             D
Just when you're ready to go
               E
You turn your back on her
A                                      
You just got your mind on the things ahead
D                       B
At last you're gonna be free
E
You'll only miss her
Just after you kiss her


                       A A
Dancing the night away
                       A A
Dancing the night away
                       A A
Dancing the night away
                       D D
Dancing the night away


Questions, comments, insults...BlindTerry333
Suggest correction
Creating personal tab
Creating personal tab
You can edit any tab online and save it as your Personal.

You can edit, replace or remove any tab part or add personal notes – all changes will be seen only by you.

Personal tabs can be accessed anytime from any device, even offline.
Learn more »
Give kudos to tab author, rate the tab!
1 2 3 4 5
comments
print report bad tab
guest
You may want to rate the tab now too:
select rating
Wanna post a correction for this tab? Suggest correction