Oops, an error
Loading. Please wait.

Downed bass

715 views 1 this week
no commentswrite comment
1 2 3 4 5
1 last vote to show rating
add to favorites
×
Save as Personal and add changes to this tab that will be seen only by you. Learn more ›
×
You can save this tab as Personal to edit and correct it or add notes. All changes will be seen only by you. Learn more »
launch autoscroll
font size
0
reset
guitar tuner
edit
Autoscroll
slow
fast
+/-
esc
set tempo
stop
Author
Difficulty
-----------------------------------------------------------------------------        
DOWNED (LIVE) - Cheap Trick
-----------------------------------------------------------------------------
4/13/13
Tabbed by: Curt Lewis
E-mail: TLewis95@aol.com
Artist - Cheap Trick
Song - Downed
Album - Budokan (1978)
Bassist - Tom Peterson
Tuning - Standard EADG

This was tabbed to the live 1978 'Budokon' version but works fine with the 
'In Color' album version as well. The main difference with the album is a slightly more simple 
chorus and a fade out instead of the DCBA#D ending that I have down here. This is 
one of my favorite songs and I just got in the mood to tab it out tonight. Just listen
to the song for the real timing (it is pretty easy) but I tried to space the notes out
in a similar way to the timing and orders of the parts are at the bottom. Enjoy!


Intro
       D   DD                    D   DD
G|-------------------------------------------------|
D|-------------------------------------------------|
A|-----5---55--------------------5---55------------|
E|-------------------------------------------------|

_______________ Verse _________________  


Verse Pt1 
       D   DC    CGG EGG#A  AG   G D   DD D
G|--------------------------------------------------------| (x2)
D|--------------------------------------------------------| 
A|-----5---53----3-----------------5---55-5---------------|
E|----------------33--0345--53---3------------------------|

Verse End
    EGG#A  AG    G  D DD     EGG#A  AG    G  D DD     EGG#A  AG    G  D DD 
G|-------------------------------------------------------------------------| (x1)
D|-------------------------------------------------------------------------|
A|------------------5-55---------------------5-55---------------------5-55-|
E|---0345--53----3------------0345--53----3------------0345--53----3-------|

______________ End Verse _______________ 

Pre Chorus
    EGG#A  AG    G   E   E C    C E    E C
G|--------------------------------------------|
D|--------------------------------------------|
A|-------------------7---7\3----3/7----7\3----|
E|---0345--53----3----------------------------|


Bridge
    EGEGA   EGEGA    EE             EGG#A BCC#D
G|------------------------| (x3) |------------------| (Last Time Only)
D|------------------------|      |------------------|
A|-------------------77---|      |--------2345------|
E|--03035---03035---------|      |---0345-----------|


Chorus
3:03 D       D DD    C    B    A#
G|------------------------------------|
D|------------------------------------|
A|---5-------5-55----3----2----1------|
E|------------------------------------|

3:18 D  DD  DC  CC CB  C
G|------------------------|
D|------------------------|
A|---5--55--53--33-32--3--|
E|------------------------|

3:25 D  DD ADC#C  C  CC  B BB BB  A#A#A#A# 
G|-----------------------------------------|
D|-----------------------------------------|
A|---5--55-054-3--3--33--2-22-22--1-11-111-|
E|-----------------------------------------|

3:33 D D D D C C C C A#A#A#A#C  EGG#ABCC#D
G|-----------------------------------------|
D|-----------------------------------------|
A|---5-5-5-5-3-3-3-3-1-1-1-1-3-------2345--|
E|------------------------------0345-------|

3:41 D  DD ADC#C  C  CC  B BB BB  A#A#A#A# 
G|------------------------------------------|
D|------------------------------------------|
A|---5--55-054-3--3--33--2-22-22--11111111--|
E|------------------------------------------|

(Solo/Outro Starts)
3:50 DDDDDDDD CCCCCCCC A#A#A#A# C  E  GG#A 
G|-----------------------------------------|
D|-----------------------------------------|
A|---55555555-33333333-11111111-3----------|
E|---------------------------------0--34-5-|

3:58 D  DD ADC#C CCC C  AB BB B  AA#A#A#A#  A
G|--------------------------------------------|
D|--------------------------------------------|
A|---5--55-054-3-333-3--02-22-2--011111111--0-|
E|--------------------------------------------|

Ending
4:05 D    C    B    A#
G|------------------------------------------|
D|------------------------------------------|
A|---5----3----2----1----5555555555555---5\-|
E|------------------------------------------|

Order

Intro
Verse Pt1 
Verse x2
Pre Chorus
Bridge
Intro
Verse x2
Pre Chorus
Chorus
Ending



Enjoy!


| /  slide up
| \  slide down
| h  hammer-on
| p  pull-off
| ~  vibrato
| +  harmonic
| x  Mute note
=============================================================================

            
            
Suggest correction
Creating personal tab
Creating personal tab
You can edit any tab online and save it as your Personal.

You can edit, replace or remove any tab part or add personal notes – all changes will be seen only by you.

Personal tabs can be accessed anytime from any device, even offline.
Learn more »
Give kudos to tab author, rate the tab!
1 2 3 4 5
comments
print report bad tab
guest
You may want to rate the tab now too:
select rating
Wanna post a correction for this tab? Suggest correction