Oops, an error
Loading. Please wait.

Dream Police Bass Tab

version 1
version 1

Whole song

Interactive

11,237 views 6 this week
2 commentsread comments
1 2 3 4 5
x 3
add to favorites
launch autoscroll
font size
0
reset
guitar tuner
Autoscroll
slow
fast
+/-
esc
set tempo
stop
Help us to improve Ultimate-Guitar.com Take our survey!
×
Author
Difficulty
-------------------------------------------------------------------------------
			     Dream Police - Cheap Trick
-------------------------------------------------------------------------------

Tabbed By : Davis
e-mail: powerchord117@hotmail.com

Tuning:

INTRO
G|------------------|
D|------------------|
A|-----2-0------2-0-|
E|-0-0------0-0-----|

CHORUS                                       BREAK
G|------------------------------------------|----------------------------------|
D|------------------------------------------|----------------------------------|
A|-----2-0-----2-0-----2-0------------------|--4-5-0-4-----2-----4-5-0-4-----2-|
E|-0-0-----0-0-----0-0-----0000000000000000-|2---------4-0-----2---------4-0---|
        VERSE
G|-----|----------------------------------------------------------|
D|-----|----------------------------------------------------------|
A|---2-|-77777777975777777-----------------7-5-3------------------|
E|-0---|-------------------000000000000000-------3-5-5-5-5-5-5-5-5|

G|--------------------------|
D|--------------------------|
A|-7-5-3---2222222222222222-|
E|-------3------------------|

BRIDGE
G|---------------------------------------------------------------|
D|---------------------------2222-3333---------------------------|
A|-------2222-3333------00000----------3333-------2222-3333------|
E|-00000-----------3333---------------------00000-----------3333-|

G|-----------------------------------------------------------------|
D|-------2222-3333-2222-------------------4-6----------------------|
A|-00000------------------4-5-0-4-----2-4-------4-5-0-4-----2---2--|
E|----------------------2---------4-0---------2---------4-0---0----|

INTERLUDE
G|----------------------------------------------------------|
D|----------------------------------------------------------|
A|-77777777975777777-----------------7-5-3------------------|
E|-------------------000000000000000-------3-5-5-5-5-5-5-5-5|

G|-----------------------------------------------------------------------------|
D|-----------------------------------------------------------------------------|
A|-7-5-3---22222222-33333333-44444444-55555555-666-77777-888-99999-10-10-11-11-|
E|-------3---------------------------------------------------------------------|

G|---------------------------------------------------------------------------------|
D|---------------------------------------------------------------------------------|
A|-12-12-13-13-14-14-15-15-16-16-16/-----------------------------------------------|
E|-----------------------------------2-------3-------4--7----8-------9-------10-11-|

G|---------------------------------------------------------------------------|
D|---------------------------------------------------------------------------|
A|-7-------10-------11-12--13-------12-------13-------12-------13-------12---|
E|---------------------------------------------------------------------------|

G|-------------|
D|-------------|
A|-13-------12-|
E|-------------|

ORDER:
*Intro
*Chorus
*Break 
*Verse
*Chorus
*Break
*Verse
*Bridge
*Interlude
*Intro (Repeat until fade out)

| /  slide up
| \  slide down
| h  hammer-on
| p  pull-off
| ~  vibrato

| +  harmonic
| x  Mute note
===============================================================================
Suggest correction
Give kudos to tab author, rate the tab!
1 2 3 4 5
comments
print report bad tab
2 comments total.
0 reply
Ryo_Sanada 10 Nov 27, 2009 12:26 PM

pretty good

0 reply
erind99 10 Sep 08, 2016 12:51 AM

Accurate and easy to use. THANKS!

guest
You may want to rate the tab now too:
select rating
Wanna post a correction for this tab? Suggest correction