Oops, an error
Loading. Please wait.

Eight Miles Low chords

117 views 3 this week
no commentswrite comment
1 2 3 4 5
3 more votes to show rating
add to favorites
×
Save as Personal and add changes to this tab that will be seen only by you. Learn more ›
×
You can save this tab as Personal to edit and correct it or add notes. All changes will be seen only by you. Learn more »
launch autoscroll
font size
0
reset
transpose
0
reset
simplify chords
display chords
guitar tuner
edit
Autoscroll
slow
fast
+/-
esc
set tempo
stop
Strumming
There is no strumming pattern for this song yet. and get +5 IQ
-------------------------------------------------------------------------------
                             Eight Miles Low - Cheap Trick
-------------------------------------------------------------------------------
Tabbed by:Nick V.
E-mail:BlindTerry333@gmail.com

Drop D
Tuning:DADGBE

Intro:
  
e|------0--1---------0--1----------------------------------------------------|
B|-3-3--3--3---3-3---3--3----------------------------------------------------|
G|-2-2--0--2---2-2---0--2----------------------------------------------------|
D|-0-0--0--0---0-0---0--0----------------------------------------------------|
A|-0-0--x--0---0-0---x--0----------------------------------------------------|
D|-0-0--x--0---0-0---x--0----------------------------------------------------|


Verse:
    D      Dm(V)    Dsus/A    D
e|---------------------------------------------------------------------------|
B|-7-7-7---6-6-6---5-5-5---7-7-7---------------------------------------------|
G|-7-7-7---7-7-7---7-7-7---7-7-7---------------------------------------------|
D|-7-7-7---7-7-7---7-7-7---7-7-7---------------------------------------------|
A|---------------------------------------------------------------------------|
D|---------------------------------------------------------------------------|

Verse:
D                 Dm
When I was a little boy
   Dsus/A                        D
I dreamed of playing with bigger toys
D                 Dm
I just knew what I just knew
   Dsus/A               D           
What else was I supposed to do?

Scream. Dream.
                                                           slight bend
e|---------------------------------------------------------------------------|
B|---------------------------------------------------------------------------|
G|---------------------------------------------------------------------------|
D|-3-0-0--3-0-0--3-0--3-0-0--3-0-0--3-0--3-0-0--3-0-0--3-0-0---3b--0---------|
A|-3-0-0--3-0-0--3-0--3-0-0--3-0-0--3-0--3-0-0--3-0-0--3-0-0---3b--0---------|
D|-3-0-0--3-0-0--3-0--3-0-0--3-0-0--3-0--3-0-0--3-0-0--3-0-0---3b--0---------|


Chorus:
   
e|---------------------------------------------------------------------------|   
B|-3-----------------------3-------------------------------------------------|
G|-2-----------------------2-------------------------------------------------|
D|-0--2/5--3-2-0---2-1-0---0--2/5--3-2-0--2-1-0------------------------------|
A|-0--2/5--3-2-0---2-1-0---0--2/5--3-2-0--2-1-0------------------------------|
D|-0--2/5--3-2-0---2-1-0---0--2/5--3-2-0--2-1-0------------------------------|

Dsus2                       E5 G5 F5 E5 D5
Another notch on my bed post
                          E5 D#5 D5
Another notch on your gun
Dsus2                             E5 G5 F5 E5 D5
Put your lips on the list of life
                         E5 D#5 D5
Another notch on your gun

Verse:

 D      Dm    Dsus/A    D
e|---------------------------------------------------------------------------|
B|-7-7-7---6-6-6---5-5-5---7-7-7---------------------------------------------|
G|-7-7-7---7-7-7---7-7-7---7-7-7---------------------------------------------|
D|-7-7-7---7-7-7---7-7-7---7-7-7---------------------------------------------|
A|---------------------------------------------------------------------------|
D|---------------------------------------------------------------------------|


D                         Dm
Years gone by and now I'm eight
Dsus/A                          D
The girl next door I can't tolerate
D                        Dm
She found a patient, oh I give in
Dsus/A                   D      
She's the nurse with the medicine

Scream. Dream.
                                                           slight bend
e|---------------------------------------------------------------------------|
B|---------------------------------------------------------------------------|
G|---------------------------------------------------------------------------|
D|-3-0-0--3-0-0--3-0--3-0-0--3-0-0--3-0--3-0-0--3-0-0--3-0-0--3b--0----------|
A|-3-0-0--3-0-0--3-0--3-0-0--3-0-0--3-0--3-0-0--3-0-0--3-0-0--3b--0----------|
D|-3-0-0--3-0-0--3-0--3-0-0--3-0-0--3-0--3-0-0--3-0-0--3-0-0--3b--0----------|

Chorus:

e|---------------------------------------------------------------------------|   
B|-3-------------3----------3------------------------------------------------|
G|-2-------------2----------2------------------------------------------------|
D|-0--2/5--3-2-0-0--2-1-0---0--2/5--3-2-0--2-1-0-----------------------------|
A|-0--2/5--3-2-0-0--2-1-0---0--2/5--3-2-0--2-1-0-----------------------------|
D|-0--2/5--3-2-0-0--2-1-0---0--2/5--3-2-0--2-1-0-----------------------------|

Dsus2                       E5 G5 F5 E5 D5
Another notch on my bed post
                          E5 D#5 D5
Another notch on your gun
Dsus2                             E5 G5 F5 E5 D5
Put your lips on the list of life
Dsus                                          G
You've had it all, but you're not the only one
                Dsus2
Not the only one


D    Dm         G      Cadd9       
Violins I can hear you call
D     Dm         G        Cadd9
I found out you don't care at all
D     Dm         G     Cadd9
Violins tell me what to do
D    Dm           F5  E5      Dsus2
All I want is to play with you

Intro

D                   Dm
The day that I turned twenty-one
Dsus/A                D
Thought I was the biggest gun
D                   Dm
Lusted from your face to view
Dsus/A               D
What else was I supposed to do?

Scream. Dream.
                                                           slight bend
e|---------------------------------------------------------------------------|
B|---------------------------------------------------------------------------|
G|---------------------------------------------------------------------------|
D|-3-0-0--3-0-0--3-0--3-0-0--3-0-0--3-0--3-0-0--3-0-0--3-0-0--3b--0----------|
A|-3-0-0--3-0-0--3-0--3-0-0--3-0-0--3-0--3-0-0--3-0-0--3-0-0--3b--0----------|
D|-3-0-0--3-0-0--3-0--3-0-0--3-0-0--3-0--3-0-0--3-0-0--3-0-0--3b--0----------|
                                                           slight bend

Chorus:

e|---------------------------------------------------------------------------|   
B|-3-------------3----------3------------------------------------------------|
G|-2-------------2----------2------------------------------------------------|
D|-0--2/5--3-2-0-0--2-1-0---0--2/5--3-2-0--2-1-0-----------------------------|
A|-0--2/5--3-2-0-0--2-1-0---0--2/5--3-2-0--2-1-0-----------------------------|
D|-0--2/5--3-2-0-0--2-1-0---0--2/5--3-2-0--2-1-0-----------------------------|

Oh!

Dsus2                       E5 G5 F5 E5 D5
Another notch on my bed post
                          E5 D#5 D5
Another notch on your gun
Dsus2                             E5 G5 F5 E5 D5
Put your lips on the list of life
Dsus                                          G
You've had it all, but you're not the only one
                Dsus2
Not the only one

D    Dm         G      Cadd9       
Violins I can hear you call
D     Dm         G        Cadd9
I found out you don't care at all
D     Dm         G     Cadd9
Violins tell me what to do
D    Dm           F5  E5      Dsus2
All I want is to play with you


Questions, comments, insults...BlindTerry333

            
            
Suggest correction
Creating personal tab
Creating personal tab
You can edit any tab online and save it as your Personal.

You can edit, replace or remove any tab part or add personal notes – all changes will be seen only by you.

Personal tabs can be accessed anytime from any device, even offline.
Learn more »
Give kudos to tab author, rate the tab!
1 2 3 4 5
comments
print report bad tab
guest
You may want to rate the tab now too:
select rating
Wanna post a correction for this tab? Suggest correction