Oops, an error
Loading. Please wait.

Elo Kiddies tab

145 views 3 this week
no commentswrite comment
1 2 3 4 5
2 more votes to show rating
add to favorites
×
Save as Personal and add changes to this tab that will be seen only by you. Learn more ›
×
You can save this tab as Personal to edit and correct it or add notes. All changes will be seen only by you. Learn more »
launch autoscroll
font size
0
reset
how to read this tab
guitar tuner
edit
Autoscroll
slow
fast
+/-
esc
set tempo
stop
Author
Difficulty
[Intro]

  D                         C#
e|------------------------------------------------------------------------|
B|-10-10-10-10-10-10-10-10--9--9--9--9--9--9--9--9------------------------|
G|-11-11-11-11-11-11-11-11--10-10-10-10-10-10-10-10-----------------------|
D|-12-12-12-12-12-12-12-12--11-11-11-11-11-11-11-11-----------------------|
A|------------------------------------------------------------------------|
E|------------------------------------------------------------------------|

  C                         B
e|------------------------------------------------------------------------|
B|-8--8--8--8--8--8--8--8---7-7-7-7-7-7-7-7-------------------------------|
G|-9--9--9--9--9--9--9--9---8-8-8-8-8-8-8-8-------------------------------|
D|-10-10-10-10-10-10-10-10--9-9-9-9-9-9-9-9-------------------------------|
A|------------------------------------------------------------------------|
E|------------------------------------------------------------------------|


  G#5         F#5        A5         G#5   F#5 G5 G#5
e|------------------------------------------------------------------------|
B|------------------------------------------------------------------------|
G|-13--13-13--11--11-11--14--14-14-13-13---11-12-13-----------------------|
D|-x---x--x---x---x--x---x---x--x--x--x----x--x--x------------------------|
A|-11--11-11--9---9--9---12--12-12-11-11---9--10-11-----------------------|
E|------------------------------------------------------------------------|


[Chorus]

  E5 D5 G5  E5  E5 D5 G5  E5  D  A
e|----------------------------2--0----------------------------------------|
B|----------------------------3--2----------------------------------------|
G|-9--7--12--9--9--7--12--9---2--2----------------------------------------|
D|-x--x--x---x--x--x--x---x---0--2----------------------------------------|
A|-7--5--10--7--7--5--10--7---0--0----------------------------------------|
E|------------------------------------------------------------------------|


E5 D5 G5 E5  E5 D5 G5 E5
ELO kiddies, ELO kiddies
D                          A
Whatcha gonna do when the lights start shining?

E5 D5 G5 E5  E5 D5 G5 E5
ELO kiddies, ELO kiddies
D                          A
Whatcha gonna do when your head's exploding?

A

[Verse]

D
So you missed some school
A
You know that school's for fools
F                             G(III)
Today money rules and everybody steals it

  G#5         F#5        A5         G#5   F#5 G5 G#5
e|------------------------------------------------------------------------|
B|------------------------------------------------------------------------|
G|-13--13-13--11--11-11--14--14-14-13-13---11-12-13-----------------------|
D|-x---x--x---x---x--x---x---x--x--x--x----x--x--x------------------------|
A|-11--11-11--9---9--9---12--12-12-11-11---9--10-11-----------------------|
E|------------------------------------------------------------------------|


[Chorus]

E5 D5 G5 E5  E5 D5 G5 E5
ELO kiddies, ELO kiddies
D                         A
Whatcha gonna do when your stomach's burning?


[Chorus]

E5 D5 G5 E5  E5 D5 G5 E5
ELO kiddies, ELO kiddies
D                          A
Whatcha gonna do when your guts are churning?

A

[Verse]

D                         A
You lead a life of crime, you gotta go unwind
F
You haven't got much time
G(III)
You know they're out to get you!

D  E  Esus4 E Esus4 E [x4]

D

E Esus4 E [x3]


  G#5         F#5        A5         G#5   F#5 G5 G#5
e|------------------------------------------------------------------------|
B|------------------------------------------------------------------------|
G|-13--13-13--11--11-11--14--14-14-13-13---11-12-13-----------------------|
D|-x---x--x---x---x--x---x---x--x--x--x----x--x--x------------------------|
A|-11--11-11--9---9--9---12--12-12-11-11---9--10-11-----------------------|
E|------------------------------------------------------------------------|



[Chorus]

E 
ELO kiddies, ELO kiddies
D                        A
Whatcha gonna do when you get religion?

E
ELO kiddies, ELO kiddies
D                        A
Hope you didn't get it on the television

A

[Verse]

A
So you missed some school
A
You know that school's for fools
B
Today money rules and everybody steals it
D                         A
You lead a life of crime, you gotta go unwind
F
You haven't got much time
G(III)
You know they're out to get you!
D      E
Ohh!

E






            
            
Suggest correction
Creating personal tab
Creating personal tab
You can edit any tab online and save it as your Personal.

You can edit, replace or remove any tab part or add personal notes – all changes will be seen only by you.

Personal tabs can be accessed anytime from any device, even offline.
Learn more »
Give kudos to tab author, rate the tab!
1 2 3 4 5
comments
print report bad tab
guest
You may want to rate the tab now too:
select rating
Wanna post a correction for this tab? Suggest correction