Oops, an error
Loading. Please wait.

Floating Down tab

22 views 3 this week
no commentswrite comment
1 2 3 4 5
2 more votes to show rating
add to favorites
×
Save as Personal and add changes to this tab that will be seen only by you. Learn more ›
×
You can save this tab as Personal to edit and correct it or add notes. All changes will be seen only by you. Learn more »
launch autoscroll
font size
0
reset
how to read this tab
guitar tuner
edit
Autoscroll
slow
fast
+/-
esc
set tempo
stop
[Intro]

E*

e|--------4-----------------------------------------------------------------|
B|------5-------------------------------------------------------------------|
G|----4---------------------------------------------------------------------|
D|--------------------------------------------------------------------------|
A|--------------------------------------------------------------------------|
E|-0------------------------------------------------------------------------|


[Verse]

Esus4 E
Sometimes I'm falling down
Esus4 E
Some days I hit the ground
Esus4 E
My tail will turn around, you know
Esus4 E                        A
Nobody's helped me out, but myself

[Pre-Chorus]

A                       E            Esus4  E
I couldn't see it, blinded by the light
C#m                                  Esus4  E
Nobody helped me, no one to scold me now
A
Oh, nobody told me yesterday
    B                                E
Oh baby, here I am falling to the ground


[Chorus]

A          E  Esus4 E
Floating down
C#m        E  Esus4 E
Floating down


[Verse]

Esus4 E
Lately I've become
Esus4 E
So light, light as a feather so
Esus4 E
No match, the weather, the weather
                                   A
You lay down in a field of poppies but


[Pre-Chorus]

E                           Esus4 E
Nobody told me that yesterday
C#m                    E
No one could help me anyway
     A
Oh, wish you could feed me for one day
        B                                   E
And yes, you feel those tears come floating down


[Chorus]

A          E  Esus4 E
Floating down
C#m        E  Esus4 E
Floating down


[Bridge]

e|------------------2-------------------0--0--0--0---2-----------------------|
B|------------------3-------------------0--0--0--0---3-----------------------|
G|-----------9-9\---2-------------------1--2--1--2---2-----------------------|
D|-----------9-9\---0-------------------2--2--2--2---0-----------------------|
A|------7-9---------0--4--2-0-----------2--2--2--2---0--4--2-0---------------|
E|-7-9-------------------------4--2-0---0--0--0--0--------------4--2-0-------|

e|-0--0--0--0-----------------------------0----------------------------------|
B|-0--0--0--0-----------------------------0-----------------------10--9------|
G|-1--2--1--2-----------------------------1---9--7-9--------------9---9------|
D|-2--2--2--2-----------------------------2---9--7-9--------9-11--9---9------|
A|-2--2--2--2--5-4-2-0------5-4-2-0-------2------------9-11------------------|
E|-0--0--0--0----------4-2----------4-2---0----------------------------------|


[Verse]

Esus4 E
Sand clouds and calming seas
Esus4 E
Searching through the trees
Esus4 E
And I'm counting all the weeks 'til she
                                  A
She comes floating down with your dreams


[Pre-Chorus]

A                                 E  Esus4 E
Hoping and praying she has come for me
C#m                          E  Esus4 E
Oh please, how lovely it would be
A
Oh if I could get up, I would tell the world
      B
But somehow I've fallen down in this town

[Chorus]

A          E  Esus4 E
Floating down
C#m        E  Esus4 E
Floating down

***********************

E* (repeat until chord change)

            
            
Suggest correction
Creating personal tab
Creating personal tab
You can edit any tab online and save it as your Personal.

You can edit, replace or remove any tab part or add personal notes – all changes will be seen only by you.

Personal tabs can be accessed anytime from any device, even offline.
Learn more »
Give kudos to tab author, rate the tab!
1 2 3 4 5
comments
print report bad tab
guest
You may want to rate the tab now too:
select rating
Wanna post a correction for this tab? Suggest correction