Oops, an error
Loading. Please wait.

Hes A Whore tab

67 views 1 this week
no commentswrite comment
1 2 3 4 5
3 more votes to show rating
add to favorites
×
Save as Personal and add changes to this tab that will be seen only by you. Learn more ›
×
You can save this tab as Personal to edit and correct it or add notes. All changes will be seen only by you. Learn more »
launch autoscroll
font size
0
reset
how to read this tab
guitar tuner
edit
Autoscroll
slow
fast
+/-
esc
set tempo
stop
[Intro]

   D                                                            
e|------------------------------------------------------------------3----2---|
B|-3-3-3-3-3--3-3-3-3-3--3-3-3-3-3--3-3-3-3-3--3-3-3-3-3------------3----3---|
G|-2-2-2-2-2--2-2-2-2-2--2-2-2-2-2--2-2-2-2-2--2-2-2-2-2--7--5---------------|
D|-0-0-0-0-0--0-0-0-0-0--0-0-0-0-0--0-0-0-0-0--0-0-0-0-0--7--5---------------|
A|---------------------------------------------------------------------------|
E|---------------------------------------------------------------------------|


[Verse]

                    D
Have you seen her face?
             C#              B
She's got a face that could stop a clock
              A                    G
And with that face I surely won't stop
     C                  D
To look her in the eyes


[Verse]

                  D
But her money's green
     C#                 B
Like tea and so's her teeth
             A                   G
But she's still so close to my reach
         C                   D
If I call, if I call at all


[Pre-Chorus]

e|---------------------------------------------------------------------------|
B|-0------0------0------0---0------------------------------------------------|
G|-4------2------4------2---4---4-4-4-4-4------------------------------------|
D|-4------2------4------2---4---4-4-4-4-4------------------------------------|
A|-2------0------2------0---2---2-2-2-2-2------------------------------------|
E|---------------------------------------------------------------------------|



             Bsus2
Any time at all
             Asus2
Any time at all
             Bsus2
Any time at all
             Bsus2  B
Any time at all


[Verse]
                  D
And so the story goes
                 C#           B
I think I'll take her for a ride
                A            G
With this money bag by my side
       C                       D
A giggolo is the only way to go


[Verse]

                  D
And so I show my face
           C#           B
And I can even fake a smile
           A                    G
But I'm laughing inside all the while
              C              D
This little girl, she's a joke
D
She's a joke, she's a joke


[Pre-Chorus]

e|---------------------------------------------------------------------------|
B|-0------0------0------0---0------------------------------------------------|
G|-4------2------4------2---4---4-4-4-4-4------------------------------------|
D|-4------2------4------2---4---4-4-4-4-4------------------------------------|
A|-2-·/.--0-·/.--2------0---2---2-2-2-2-2------------------------------------|
E|---------------------------------------------------------------------------|

             Bsus2
Any time at all
             Asus2
Any time at all
             Bsus2
Any time at all
             Bsus2 B
Any time at all


[Chorus]

e|---------------------------------------------------------------------------|
B|-7b8--5--7b8v---------7b8--5--7b8v----------7b8--5--7b8v-------------------|
G|---------------------------------------------------------------------------|
D|--------------5--7-5----------------5--7-5-----------------5--7-5----------|
A|--------------3--5-3----------------3--5-3-----------------3--5-3----------|
E|---------------------------------------------------------------------------|

                                                            
e|---------------------------------------------------------------------------|
B|-7b8--5--7b8v--------------------------------------------------------------|
G|---------------------------------------------------------------------------|
D|---------------------------------------------------------------------------|
A|---------------------------------------------------------------------------|
E|---------------------------------------------------------------------------|

                     C             D   C
He's a whore (I'll do anything for money)
                     C             D   C
He's a whore, (Look at the things that I like)
                     C             D   C
He's a whore, (Oh, the stories I can tell)
D
And my money really smells (Ooooh)

[Solo]
                                                   (noise)
e|-------------------------------------------------------------------------|
B|---7-5---7-5-----5-------------------------------------------------------|
G|---7-5---7-5--7--5-----5-----5-----5-----5-------------------------------|
D|--------------7-----7--5--7--5--7--5--7--5-------------------------------|
A|--------------------7-----7-----7-----7----------------------------------|
E|-------------------------------------------------------------------------|


[Chorus]

A                      C         D C
I'm a whore (He'll do anything for money)
A                      C         D C
I'm a whore (Look at the clothes that he wears)
A                      C         D C
I'm a whore (He'll do anything for money)
D
I'm a whore!


[Outro]
                   D
And so the story goes
             C#             B
I think I'll take her for a ride
             A              G
With this money bag by my side
     C                         D
A giggolo is the only way to go
D
Oh, oh wo-wo, oh

*********************
·/. pick slide

            
            
Suggest correction
Creating personal tab
Creating personal tab
You can edit any tab online and save it as your Personal.

You can edit, replace or remove any tab part or add personal notes – all changes will be seen only by you.

Personal tabs can be accessed anytime from any device, even offline.
Learn more »
Give kudos to tab author, rate the tab!
1 2 3 4 5
comments
print report bad tab
guest
You may want to rate the tab now too:
select rating
Wanna post a correction for this tab? Suggest correction