Oops, an error
Loading. Please wait.

High Roller chords

268 views 1 this week
no commentswrite comment
1 2 3 4 5
2 more votes to show rating
add to favorites
×
Save as Personal and add changes to this tab that will be seen only by you. Learn more ›
×
You can save this tab as Personal to edit and correct it or add notes. All changes will be seen only by you. Learn more »
launch autoscroll
font size
0
reset
transpose
0
reset
simplify chords
display chords
guitar tuner
edit
Autoscroll
slow
fast
+/-
esc
set tempo
stop
Strumming
There is no strumming pattern for this song yet. and get +5 IQ
-------------------------------------------------------------------------------
                       High Roller-Cheap Trick
-------------------------------------------------------------------------------
Tabbed by:Nick V.
Email:BlindTerry333@gmail.com

[Intro] 

A

[Fig. 1]
e|---------------------------------------------------------------------------|
B|--------5----------5------------------5----------5-------------------------| 
G|-7-7-7--5---7-7-7--5-----------7-7-7--5---7-7-7--5-------------------------| 
D|-7-7-7--0---7-7-7--0--5-5h7----7-7-7--0---7-7-7--0--5-5-7-7----------------| 
A|---------------------------------------------------------------------------| x4
E|---------------------------------------------------------------------------| 


[Verse]
[Fig. 1]
Jump in my love car, don't have to go very far
Just far enough to show you a thing or two
 
[Fig. 1]
I can really swing, the best of everything
And I want to have a thing with you


[Chorus]
B           E
High roller
A
What I buy is mine
                                     Bm    
And I always get the things that I choose
B  C#   D                     E
My, my, my, such a high roller
E[VII] 
I know he's gone away and left you

   pm                            
e|---------------------------------------------------------------------------|
B|---------------------------------------------------------------------------| 
G|------------------------------9--7--6--4-----------------------------------| 
D|-9-9-9-9-9-9-9-9-9-9-9-9-9----x--x--x--x-----------------------------------| 
A|-7-7-7-7-7-7-7-7-7-7-7-7-7----7--5--4--2-----------------------------------| 
E|-0-0-0-0-0-0-0-0-0-0-0-0-0-----------------3-2-0---------------------------| 

E[VII]
I'll take real good care of you

   pm                            
e|---------------------------------------------------------------------------|
B|---------------------------------------------------------------------------| 
G|------------------------------9--7--6--4-----------------------------------| 
D|-9-9-9-9-9-9-9-9-9-9-9-9-9----x--x--x--x-----------------------------------| 
A|-7-7-7-7-7-7-7-7-7-7-7-7-7----7--5--4--2----------0------------------------| 
E|-0-0-0-0-0-0-0-0-0-0-0-0-0-----------------0--3b---------------------------| 


[Verse]
[Fig. 1]
I'm in the mood for love, you're all I'm thinking of
I'll make you feel alright when we're alone

[Fig. 1]
I can really swing, the best of everything
And I want to have a thing with you


[Chorus]
B           E
High roller
A
What I buy is mine
                                     Bm    
And I always get the things that I choose
B  C#   D                     E
My, my, my, such a high roller
Is that you?


[Bridge]
D                    D7          E              F#
I knew you'd be here tonight and I'll make it alright
D           E                    A  D  A  D
I'll take real good care of you
D               D7            E           F#
I'll tuck you in tonight and I'll make it alright

E[VII] 
I know he's gone away and left you

   pm                            
e|---------------------------------------------------------------------------|
B|---------------------------------------------------------------------------| 
G|------------------------------9--7--6--4-----------------------------------| 
D|-9-9-9-9-9-9-9-9-9-9-9-9-9----x--x--x--x-----------------------------------| 
A|-7-7-7-7-7-7-7-7-7-7-7-7-7----7--5--4--2-----------------------------------| 
E|-0-0-0-0-0-0-0-0-0-0-0-0-0-----------------3-2-0---------------------------| 

E[VII]
I'll take real good care of you

   pm                            
e|---------------------------------------------------------------------------|
B|---------------------------------------------------------------------------| 
G|------------------------------9--7--6--4-----------------------------------| 
D|-9-9-9-9-9-9-9-9-9-9-9-9-9----x--x--x--x-----------------------------------| 
A|-7-7-7-7-7-7-7-7-7-7-7-7-7----7--5--4--2----------0------------------------| 
E|-0-0-0-0-0-0-0-0-0-0-0-0-0-----------------0--3b---------------------------| 



[Verse]
e|---------------------------------------------------------------------------|
B|--------5----------5------------------5----------5-------------------------| 
G|-7-7-7--5---7-7-7--5-----------7-7-7--5---7-7-7--5-------------------------| 
D|-7-7-7--0---7-7-7--0--5-5h7----7-7-7--0---7-7-7--0--5-5-7-7----------------| 
A|---------------------------------------------------------------------------| x3
E|---------------------------------------------------------------------------| 


[Ending]
e|---------------------------------------------------------------------------|
B|-------5--------5--------5---------5---------------------------------------| 
G|-7--7--5---7--7-5---7--7-5---7--7--5---------------------------------------|
D|-7--7--0---7--7-0---7--7-0---7--7--0---------------------------------------| 
A|---------------------------------------------------------------------------| 
E|---------------------------------------------------------------------------| 

            
            
Suggest correction
Creating personal tab
Creating personal tab
You can edit any tab online and save it as your Personal.

You can edit, replace or remove any tab part or add personal notes – all changes will be seen only by you.

Personal tabs can be accessed anytime from any device, even offline.
Learn more »
Give kudos to tab author, rate the tab!
1 2 3 4 5
comments
print report bad tab
guest
You may want to rate the tab now too:
select rating
Wanna post a correction for this tab? Suggest correction