Oops, an error
Loading. Please wait.

I Want You To Want Me Bass Tab

version 1
version 1

Whole song

Interactive

41,360 views 27 this week
1 commentread comment
1 2 3 4 5
x 14
add to favorites
launch autoscroll
font size
0
reset
guitar tuner
Autoscroll
slow
fast
+/-
esc
set tempo
stop
Help us to improve Ultimate-Guitar.com Take our survey!
×
song: I Want You To Want Me
artist: Cheap Trick
album: Cheap Trick

 
[intro]:x1(after drum intro)
G|-------------------------------------------------------------------|
D|-------------------------------------------------------------------|
A|------------------------------------------5-5-5-5------------------|
E|--5-5-5-5-5-5-5-5-5-5-5-5-5-5-5-5-3-3-3-3---------5-5-5-5-5-5-5-5--|
 
 
[verse]:x1
G|------------------------------------------------------------------------------------------------|
D|--7-7-7-7-7-7-7-7-7-7-7-7\6666\444444444444-----------------------------------------------------|
A|--------------------------------------------7-7-7-7\555555555555\4444---------------------------|
E|----------------------------------------------------------------------5-5-5-5-5-5-5-5-5-5-5-5\--|
 
(continued)     "end"
G|------------|-----------------------------------------------------------------------|
D|------------|-----------------------------------------------------------------------|
A|------------|---------------7-7-7-7\555555555555\4444-------------------------------|
E|--4-4-4-4\--|--222222222222---------------------------5-5-5-5-5-5-5-5-5-5-5-5\4444--|
 
 
[pre-chorus]:x2        end first      end second
G|---------------------------|----------|-------------------------|
D|---------------------------|----------|-------------------------|
A|----------2-2-2-2----------|----------|-------------------------|
E|--2-2-2-2---------3-3-3-3--|--5-5\33--|--3-3-3-3\2222-2-2/3/4/--|
 
 
[chorus]:x2
G|-------------------------------------------------------|
D|-------------------------------------------------------|
A|--------------------------------------5-5-5-5-5\4\3\2--|
E|--5-5-5-5-5-5-5-5\000000-1-1/22222222------------------|
 
 
[verse]:x1(go into pre-chorus before "end")
 
[pre-chorus]:x2
 
[chorus/solo]:x3
 
[chorus](b)x1
G|-------------------------------------------------------|
D|-------------------------------------------------------|
A|--------------------------------------5-5-5-5-5-5-5-5--|
E|--5-5-5-5-5\4\3\2\000000-1-1/22222222------------------|
 
 
[chorus/solo2]:x1
 
[verse]:x1(stop before end)
 
There is no bass here for a while.  But when he comes in he plays:
 
[ending]:x1
G|-----------------------------------------------------------------|
D|--5-5-5-5--------------------------------------------------------|
A|--------------------------------------------------5-5-5-5--------|
E|----------5-5-5-5-5-5-5-5-5-5-5-5-5-5-5-5-3-3-3-3-----------5~~--|
 
 
There yah go.  This should give you a good idea.
 
HAVE FUN!!


************************************

| \  Slide down
| /  Slide up
| ~  Vibrato

************************************
Suggest correction
comments
print report bad tab
1 comment total.
0 reply
bbbBASSLINE 10 Mar 24, 2011 08:22 PM

Excellent tab! although the first eight notes are not played in the intro on the version I play to. The rest is a bloody good job!!

guest
You may want to rate the tab now too:
select rating
Wanna post a correction for this tab? Suggest correction