Oops, an error
Loading. Please wait.

I Want You To Want Me Tab

version 1
version 1

Whole song

Interactive

Video

185,145 views 213 this week
15 commentsread comments
1 2 3 4 5
x 57
add to favorites
launch autoscroll
font size
0
reset
how to read this tab
guitar tuner
Autoscroll
slow
fast
+/-
esc
set tempo
stop
Help us to improve Ultimate-Guitar.com Take our survey!
×
Author
This is a freaking good song, im suprised noone had a decent tab yet


tuning-standard-EADGBe
 
[Intro/outro]

e|-------------------------------------------------------|
B|--17------17--17---------------------------------------|
G|--16b(17)-16b-16b-14/12\14--17--17----------7----------|
D|----------------------------16b-16b/14--5---7---7------|
A|----------------------------------------5---5---7------|
E|----------------------------------------3-------5------|


[Verse]

e|---------------------------------------------------------------|
B|---------------------------------------------------------------|
G|---------------------------------------------------------------|
D|---7-7-7-7--7-7-7-7--7-7-7-7--6-6-6-6---4-4-4-4-4-4-4--4-4-4-4-|
A|---7-7-7-7--7-7-7-7--7-7-7-7--6-6-6-6---4-4-4-4-4-4-4--4-4-4-4-|
E|---5-5-5-5--5-5-5-5--5-5-5-5--4-4-4-4---2-2-2-2-2-2-2--2-2-2-2-|


e|-------------------------------------------------|
B|-------------------------------------------------|
G|------------7-7-7-7--7-7-7-7--7-7-7-7--6-6-6-6---|
D|--2-2-2-2---7-7-7-7--7-7-7-7--7-7-7-7--6-6-6-6---|       Repeat as necesary
A|--2-2-2-2---5-5-5-5--5-5-5-5--5-5-5-5--4-4-4-4---|
E|--0-0-0-0----------------------------------------|


[Pre-Chorus]

e|-----------------------------------------------------------|
B|-----------------------------------------------------------|
G|----------4-4-4-4------------------------------------------|
D|-4-4-4-4--4-4-4-4--5-5-5-5--7-7-7-7------------------------|
A|-4-4-4-4--2-2-2-2--5-5-5-5--7-7-7-7------------------------|
E|-2-2-2-2-----------3-3-3-3--5-5-5-5------------------------|

e|-----------------------------------------------------------|
B|-----------------------------------------------------------|
G|----------4-4-4-4------------------------------------------|
D|-4-4-4-4--4-4-4-4--5-5-5-5-5-5-5-5--4-4-4-4-4-4-4-4--------|
A|-4-4-4-4--2-2-2-2--5-5-5-5-5-5-5-5--4-4-4-4-4-4-4-4--------|
E|-2-2-2-2-----------3-3-3-3-3-3-3-3--2-2-2-2-2-2-2-2--------|


[Chorus]

e|------------------------------------------------------------------------|
B|------------------------------------------------------------------------|
G|-------------------------------------------------------7-7-7-7-7-7-7-7--|
D|-7-7-7-7-7-7-7-7--2-2-2-2-2-2-2-2-2--4-4-4-4-4-4-4-4---7-7-7-7-7-7-7-7--|
A|-7-7-7-7-7-7-7-7--2-2-2-2-2-2-2-2-2--4-4-4-4-4-4-4-4---5-5-5-5-5-5-5-5--|
E|-5-5-5-5-5-5-5-5--0-0-0-0-0-0-0-0-0--2-2-2-2-2-2-2-2--------------------|


[Solo 1]

e|----------------------------------------------------------------------------|
B|-14-------14---14---14---14---14------------14------------------------------|
G|---16b(18)--16b--16b--16b--16b--16-14-13-11\--16-14-13-11-9-7-6-6^(7)-7-9b\-|
D|----------------------------------------------------------------------------|
A|----------------------------------------------------------------------------|
E|----------------------------------------------------------------------------|


[Solo 2]

e|-17------17---17---17---17---17---17------------|
B|---20(22)--20b--20b--20b--20b--20b--20^\/13-13--|
G|------------------------------------------------|
D|------------------------------------------------|
A|------------------------------------------------|
E|------------------------------------------------|

e|-------------------------------------------------|
B|-13-13-13-13-13--------13-----13-13-14-15-16\----|
G|---------------14-12-14--14-12-------------------|
D|-------------------------------------------------|
A|-------------------------------------------------|
E|-------------------------------------------------|

There are a few fills in the song but i don't know all of them so i just gave the major
one in the verses(1)e fast one that happens in the end of the first pre chorus and the
end of the second verse(2)d the one in the first pre chorus(3)

Major Fill(1)     Fast Fill Thingie(2)      Pre Chourus Thing (3)

e|---------------  e|-----------------------  e|-------------------|
B|-5^(6)-5^(6)---  B|-2p0-------------------  B|-5-4-3-2-5-4-3v--2-|
G|------7-----7--  G|----h2p1---------------  G|-------------------|
D|---------------  D|--------h4p2p0---------  D|-------------------|
A|---------------  A|--------------h4p2p0---  A|-------------------|
E|---------------  E|--------------------p4-  E|-------------------| 



************************************

| (n)  Ghost note
| h    Hammer-on
| p    Pull-off
| b    Bend
| /    Slide up
| \    Slide down 
| ^    Bend and bend back 
| v    Vibrato

************************************
Suggest correction
comments
print report bad tab
15 comments total. Showing first comments. show 1 bad comment
+2 reply
GAC1989 130 Jul 21, 2005 12:00 AM

looks like a good tab this is one of the best rock sings ever!!!!!!!!

0 reply
GAC1989 130 Jul 21, 2005 12:00 AM

songs*

guest
You may want to rate the tab now too:
select rating
Wanna post a correction for this tab? Suggest correction