Oops, an error
Loading. Please wait.

If You Want My Love Tab

version 1
version 1

Solo

Interactive

3,274 views 1 this week
no commentswrite comment
1 2 3 4 5
accurate
x 4
add to favorites
launch autoscroll
font size
0
reset
how to read this tab
guitar tuner
Tab Pro tools
  • play this tab
  • loop segment
  • change instrument
  • show fretboard
  • metronome
×
Best way to learn
"If You Want My Love"
Autoscroll
slow
fast
+/-
esc
set tempo
stop
Hey all, still trying to figure out the whole song but hres the solo
... enjoy

e-------------------------------------------------------------|
B-------------------------------------------------------------|
G-------------------------------------------------------------|
D-------------------------------------------------------------|
A--7/9-11--12-11---7-4-7---7/9-11-12-11-11-11\9---7/9-11-12---|
E-------------------------------------------------------------|

                         (harmonics)
e-----------------------------12---|
B--------------------------12------|
G----------------------------------|
D----------------------------------|
A--7/9-11-12-11-11-11\7------------|
E----------------------------------|

hey if you have any questions ... punkrockdude_bink182@hotmail.com (yes it is bink182)
comments
print report bad tab
I want to post or [tab]
guest
You may want to rate the tab now too:
select rating
Please do not post tabs as comments. Select "correction" instead!