Oops, an error
Loading. Please wait.

My Gang tab

37 views 1 this week
no commentswrite comment
1 2 3 4 5
3 more votes to show rating
add to favorites
×
Save as Personal and add changes to this tab that will be seen only by you. Learn more ›
×
You can save this tab as Personal to edit and correct it or add notes. All changes will be seen only by you. Learn more »
launch autoscroll
font size
0
reset
how to read this tab
guitar tuner
edit
Autoscroll
slow
fast
+/-
esc
set tempo
stop
[Intro]

D  G  D  G 


   A                    A                   A                    A
e|----------------------------------------------------------------------------------|
B|-2--2-----------------2--2----------------2--2-----------------2--2---------------|
G|-2--2--2-0-2-4-2-0----2--2--2-0-2-4-2-0---2--2--2-0-2-4-2-0----2--2--2-0-2-4-2-0--|
D|-2--2-----------------2--2----------------2--2-----------------2--2---------------|
A|-0--0-----------------0--0----------------0--0-----------------0--0---------------|
E|----------------------------------------------------------------------------------|



[Verse]


   A                    A                   A                    A
e|----------------------------------------------------------------------------------|
B|-2--2-----------------2--2----------------2--2-----------------2--2---------------|
G|-2--2--2-0-2-4-2-0----2--2--2-0-2-4-2-0---2--2--2-0-2-4-2-0----2--2--2-0-2-4-2-0--|
D|-2--2-----------------2--2----------------2--2-----------------2--2---------------|
A|-0--0-----------------0--0----------------0--0-----------------0--0---------------|
E|----------------------------------------------------------------------------------|

   A                    A                   A                    A
e|----------------------------------------------------------------------------------|
B|-2--2-----------------2--2----------------2--2-----------------2--2---------------|
G|-2--2--2-0-2-4-2-0----2--2--2-0-2-4-2-0---2--2--2-0-2-4-2-0----2--2--2-0-2-4-2-0--|
D|-2--2-----------------2--2----------------2--2-----------------2--2---------------|
A|-0--0-----------------0--0----------------0--0-----------------0--0---------------|
E|----------------------------------------------------------------------------------|

A
Have you changed your world?
A
Or changed your view?
A
Cause what you see is black and blue
A
Bad on the left, wrong on the right
A
Nothing seems to fit on a New York night
A
Have you heard the news?
A
Are you talking to me?
A
I say "Hey there, baby, do you like what you see?"

[Pre-Chorus]

   E
e|----------------------------------------------------------------------------------|
B|----------------------------------------------------------------------------------|
G|-----------------------------10--9--10--9--10h12-10p9-----------------------------|
D|----------------------------------------------------------------------------------|
A|-7--5--5-7--7--7-5----------------------------------------------------------------|
E|-0-----------------7-5-3-0--------------------------------------------------------|
   
   E
e|----------------------------------------------------------------------------------|
B|--------------------------------------------------------2-------------------------|
G|-----------------------------10--9--10--9--10h12-10p9---2-------------------------|
D|--------------------------------------------------------2-------------------------|
A|-7--5--5-7--7--7-5--------------------------------------0-------------------------|
E|-0-----------------7-5-3-0--------------------------------------------------------|


E
Read about it, it never fails
E                                   A
We don't doubt it, it's in the mail


[Chorus]

   D                   A                  D                  A
e|----------------------------------------------------------------------------------|
B|-3-3-----------------2-2----------------3-3----------------2-2--------------------|
G|-2-2--2-0-2-4-2-0----2-2--2-0-2-4-2-0---2-2--2-0-2-4-2-0---2-2--2-0-2-4-2-0-------|
D|-0-0-----------------2-2----------------0-0----------------2-2--------------------|
A|-0-0-----------------0-0----------------0-0----------------0-0--------------------|
E|----------------------------------------------------------------------------------|

A
So, you wanna be in my gang
D
You'd better think it through
A
Yeah, if you wanna be in my gang
D
You have to pay your dues


[Verse]

   A                    A                   A                    A
e|----------------------------------------------------------------------------------|
B|-2--2-----------------2--2----------------2--2-----------------2--2---------------|
G|-2--2--2-0-2-4-2-0----2--2--2-0-2-4-2-0---2--2--2-0-2-4-2-0----2--2--2-0-2-4-2-0--|
D|-2--2-----------------2--2----------------2--2-----------------2--2---------------|
A|-0--0-----------------0--0----------------0--0-----------------0--0---------------|
E|----------------------------------------------------------------------------------|


   A                    A                   A                    A
e|----------------------------------------------------------------------------------|
B|-2--2-----------------2--2----------------2--2-----------------2--2---------------|
G|-2--2--2-0-2-4-2-0----2--2--2-0-2-4-2-0---2--2--2-0-2-4-2-0----2--2--2-0-2-4-2-0--|
D|-2--2-----------------2--2----------------2--2-----------------2--2---------------|
A|-0--0-----------------0--0----------------0--0-----------------0--0---------------|
E|----------------------------------------------------------------------------------|

A
You sleep at night on a bed of nails
A
All lined up, fake guns for sale
A
White on the left, black on the right
A
Nothing seems to fit on a New York night
A
Have you heard the news?
A
Are you talking to me?
A
I say "Hey there, baby, do you like what you see?"


[Pre-Chorus]

   E
e|----------------------------------------------------------------------------------|
B|--------------------------------------------------------2-------------------------|
G|-----------------------------10--9--10--9--10h12-10p9---2-------------------------|
D|--------------------------------------------------------2-------------------------|
A|-7--5--5-7--7--7-5--------------------------------------0-------------------------|
E|-0-----------------7-5-3-0--------------------------------------------------------|

E
Read about it, it never fails
E
We don't doubt it, it's in the mail


[Chorus]

   D                   A
e|----------------------------------------------------------------------------------|
B|-3-3-----------------2-2----------------3-3----------------2-2--------------------|
G|-2-2--2-0-2-4-2-0----2-2--2-0-2-4-2-0---2-2--2-0-2-4-2-0---2-2--2-0-2-4-2-0-------|
D|-0-0-----------------2-2----------------0-0----------------2-2--------------------|
A|-0-0-----------------0-0----------------0-0----------------0-0--------------------|
E|----------------------------------------------------------------------------------|

A
So, you wanna be in my gang
D
You'd better think it through
A
Yeah, if you wanna be in my gang
D
You have to pay your dues


[Verse]

   A                    A                   A                    A
e|----------------------------------------------------------------------------------|
B|-2--2-----------------2--2----------------2--2-----------------2--2---------------|
G|-2--2--2-0-2-4-2-0----2--2--2-0-2-4-2-0---2--2--2-0-2-4-2-0----2--2--2-0-2-4-2-0--|
D|-2--2-----------------2--2----------------2--2-----------------2--2---------------|
A|-0--0-----------------0--0----------------0--0-----------------0--0---------------|
E|----------------------------------------------------------------------------------|


A
Change the world, change your view
A
The time is now, to make your move 
A
It's your fate, the one you chose  
A
You just misread which way the wind blows


[Pre-Chorus]

   E
e|----------------------------------------------------------------------------------|
B|--------------------------------------------------------2-------------------------|
G|-----------------------------10--9--10--9--10h12-10p9---2-------------------------|
D|--------------------------------------------------------2-------------------------|
A|-7--5--5-7--7--7-5--------------------------------------0-------------------------|
E|-0-----------------7-5-3-0--------------------------------------------------------|

E
Read about it, it never fails
E
We don't doubt it, it's in the mail

[Chorus]


   D                   A
e|----------------------------------------------------------------------------------|
B|-3-3-----------------2-2----------------3-3----------------2-2--------------------|
G|-2-2--2-0-2-4-2-0----2-2--2-0-2-4-2-0---2-2--2-0-2-4-2-0---2-2--2-0-2-4-2-0-------|
D|-0-0-----------------2-2----------------0-0----------------2-2--------------------|
A|-0-0-----------------0-0----------------0-0----------------0-0--------------------|
E|----------------------------------------------------------------------------------|

A
So, you wanna be in my gang
D
You'd better think it through
A
Yeah, if you wanna be in my gang
D
You have to pay your dues



************************************

| x   Dead note
| g   Grace note
| (n) Ghost note
| h   Hammer-on
| p   Pull-off
| r   Release
| >   Accented note
| t   Tapping
| b   Bend
| br  Bend release
| pb  Pre-bend
| pbr Pre-bend release
| /   Slide up
| \   Slide down
| ~   Vibrato
| s   Slap
| P   Pop
| PM  Palm mute
| TR  Trill
| N   Tremolo

************************************

            
            
Suggest correction
Creating personal tab
Creating personal tab
You can edit any tab online and save it as your Personal.

You can edit, replace or remove any tab part or add personal notes – all changes will be seen only by you.

Personal tabs can be accessed anytime from any device, even offline.
Learn more »
Give kudos to tab author, rate the tab!
1 2 3 4 5
comments
print report bad tab
guest
You may want to rate the tab now too:
select rating
Wanna post a correction for this tab? Suggest correction