Oops, an error
Loading. Please wait.

Oh Candy tab

202 views 3 this week
no commentswrite comment
1 2 3 4 5
2 more votes to show rating
add to favorites
×
Save as Personal and add changes to this tab that will be seen only by you. Learn more ›
×
You can save this tab as Personal to edit and correct it or add notes. All changes will be seen only by you. Learn more »
launch autoscroll
font size
0
reset
how to read this tab
guitar tuner
edit
Autoscroll
slow
fast
+/-
esc
set tempo
stop
oh, candy



cheap trick



TRANSCRIBED BY RUDY GUZMAN



guzman_84@hotmail.com

e:-2--3--2--0--2-2-2-|
B:-3--3--3--3--3-3-3-|
G:-2--2--2--2--2-2-2-|
D:-0--0--0--0--0-0-0-|
A:-0--0--0--0--0-0-0-|
E:-------------------|

e:--3--2--0--2-2-2-|
B:--3--3--3--3-3-3-|
G:--2--2--2--2-2-2-|
D:--0--0--0--0-0-0-|
A:--0--0--0--0-0-0-|
E:-----------------|

e:-3-3--2--0--2-2-2-|
B:-3-3--3--3--3-3-3-|
G:-2-2--2--2--2-2-2-|
D:-0-0--0--0--0-0-0-|
A:-0-0--0--0--0-0-0-|
E:------------------|

e:--3--2--0--2-2-2-|
B:--3--3--3--3-3-3-|
G:--2--2--2--2-2-2-|
D:--0--0--0--0-0-0-|
A:--0--0--0--0-0-0-|
E:-----------------|

oh oh, oh candy...               why did u do it?     you should've call me on the telephone
pm.................   .......    ......... ....... ..  ....   ......
e:-----------------------------------------------------------------------------------|
B:--3--3--3--3-3-3--3--3-3-3-3-3--3-3-3-3-3-3-3-3-3-3--3-3-3-3-3-3-3-3-3-3-3-3-3-3-3-|
G:--2--2--2--2-2-2--2--2-2-2-2-2--2-2-2-2-2-2-2-2-2-2--2-2-2-2-2-2-2-2-0-0-0-0-0-0-0-|
D:--0--0--0--0-0-0--0--0-0-0-0-0--0-0-0-0---0-0-0---0--0-0-0---0-0-0---0-0-0-0-0-0-0-|
A:--------------------------------3-3-3-3---3-3-3---3--3-3-3---3-3-3---2-2-2-2-2-2-2-|
E:-----------------------------------------------------------------------------------|

:---------------------------------------------------|
:--------------------3----3------8~~~------10~~~----|
:-3/5/3/5/3/5/3/5----2----0---/9-------/11----------|
:--------------------0----0-------------------------|
:-------------------------3-------------------------|
:---------------------------------------------------|

e:-2--2-2---------|
B:-3--3-3--1--1-1-|
G:-2--2-2--0--0-0-|
D:-0--0-0--2--2-2-|
A:---------3--3-3-|
E:----------------|

 oh candy worked so hard...
e:-3-3-3--3--3-3-3------------------|
B:-3-3-3--3--3-3-3--2-2-2-3-2-2-2-0-|
G:-0-0-0--0--0-0-0--2-2-2-2-2-2-2-0-|
D:-0-0-0--0--0-0-0--2-2-2-2-2-2-2-0-|
A:-2-2-2--2--2-2-2--0-0-0-0-0-0-0---|
E:-3-3-3--3--3-3-3------------------|


e:-2--2-2---------|
B:-3--3-3--1--1-1-|
G:-2--2-2--0--0-0-|
D:-0--0-0--2--2-2-|
A:---------3--3-3-|
E:----------------|


 oh candy we´re so hot...
e:-3-3-3--3--3-3-3------------------|
B:-3-3-3--3--3-3-3--2-2-2-3-2-2-2-0-|
G:-0-0-0--0--0-0-0--2-2-2-2-2-2-2-0-|
D:-0-0-0--0--0-0-0--2-2-2-2-2-2-2-0-|
A:-2-2-2--2--2-2-2--0-0-0-0-0-0-0---|
E:-3-3-3--3--3-3-3------------------|


e:-2--2-2---------|
B:-3--3-3--1--1-1-|
G:-2--2-2--0--0-0-|
D:-0--0-0--2--2-2-|
A:---------3--3-3-|
E:----------------|
E:----------------|

 oh candy i had to do it...
e:-------2---------------0-----------------3----------------3--3/5/3---3-|
B:-----3---3---3-----------1---1---------3---3---3--------3-3--3/5/3---3-|
G:---2-------2--------2------2---------0-------0--------4------------4---|
D:-0----------------2---------------------------------0------------------|
A:----------------0------------------------------------------------------|
E:----------------------------------3------------------------------------|

e:-------2---------------0-----------------3-----------------------------|
B:-----3---3---3-----------1---1---------3---3---3-------2-2-2-2-2-2-2-2-|
G:---2-------2--------2------2---------0-------0---------2-2-2-2-2-2-2-2-|
D:-0----------------2---------------------------------0--2-2-2-2-2-2-2-2-|
A:----------------0--------------------------------------0-0-0-0-0-0-0-0-|
E:----------------------------------3------------------------------------|

:------------------------|
:-----8~~~------10~~~----|
:--/9-------/11----------|
:------------------------|
:------------------------|
:------------------------|
   oh no    oh no
e:-2--2-2---------|
B:-3--3-3--1--1-1-|
G:-2--2-2--0--0-0-|
D:-0--0-0--2--2-2-|
A:---------3--3-3-|
E:----------------|

  solo                   repeat 2 times
e:-------------------|-------------------------5-|---------------------------|
B:---3-5bf-3-2-------|---3--5bf--5-3--2h3p2------|-----------------15-15b~~~-|
G:-4------------2~~~-|-4---------------------2---|-4h7-7~~-7~~~/15-----------|
D:-------------------|---------------------------|---------------------------|
A:-------------------|---------------------------|---------------------------|
E:-------------------|---------------------------|---------------------------|

 oh candy worked so hard...
e:-3-3-3--3--3-3-3------------------|
B:-3-3-3--3--3-3-3--2-2-2-3-2-2-2-0-|
G:-0-0-0--0--0-0-0--2-2-2-2-2-2-2-0-|
D:-0-0-0--0--0-0-0--2-2-2-2-2-2-2-0-|
A:-2-2-2--2--2-2-2--0-0-0-0-0-0-0---|
E:-3-3-3--3--3-3-3------------------|


e:-2--2-2---------|
B:-3--3-3--1--1-1-|
G:-2--2-2--0--0-0-|
D:-0--0-0--2--2-2-|
A:---------3--3-3-|
E:----------------|


e:-----------------------------------------------------|
B:-----------------------------------------------------|
G:-----------------------------------------------------|
D:-7--7-7--5--5-5--4--4-4--2--2-2----------------------|
A:-5--5-5--3--3-3--2--2-2--0--0-0--5--5-5--4--4-4--2-2-|
E:---------------------------------3--3-3--2--2-2--0-0-|

e:------------------------------------------|
B:------------------------------------------|
G:------------------------------------------|
D:-7--7-7--5--5-5--4--4-4--2--2-2-----------|
A:-5--5-5--3--3-3--2--2-2--0--0-0--5--5-5---|
E:---------------------------------3--3-3---|

oh candy why did u do it i didnt think of any word u said
e:-------2---------------2----------------3---------------------------------|
B:-----3---3---3------3----3----3-------3---3---3---------------------------|
G:---2-------2------2---------2-------4-------4-----7-(7)-7/9/7/9/7/9/7/9/7-|
D:-0--------------4-----------------5---------------5-(5)-5/7/5/7/5/7/5/7/5-|
A:--------------------------------------------------------------------------|
E:--------------------------------------------------------------------------|


hillo son mex
27/12/02


Oh candy why did you do it
You should've called me on the telephone
I didn't expect for you call me
'cause I didn't think that you were alone
So alone
Oh, candy worked so hard
At doin' what he thought was right
It really really doesn't mean a thing
Oh, candy worked so hard
At doin' what he thought was right
It really really doesn't mean a thing
Oh candy why did you do it
You didn't stick a needle in your vein
You just got so damned depressed
We all liked you except yourself
Oh, candy worked so hard
At doin' what he thought was right
It really really doesn't mean a thing
Oh, candy worked so hard
At doin' what he thought was right
It really really doesn't mean a thing
You, you won't be comin' around no more
You, you won't be comin' around no more
Oh candy why did you do it
I didn't think you heard a word that I said

            
            
Suggest correction
Creating personal tab
Creating personal tab
You can edit any tab online and save it as your Personal.

You can edit, replace or remove any tab part or add personal notes – all changes will be seen only by you.

Personal tabs can be accessed anytime from any device, even offline.
Learn more »
Give kudos to tab author, rate the tab!
1 2 3 4 5
comments
print report bad tab
guest
You may want to rate the tab now too:
select rating
Wanna post a correction for this tab? Suggest correction