Oops, an error
Loading. Please wait.

On Top Of The World Bass Tab

726 views 1 this week
no commentswrite comment
1 2 3 4 5
excellent!
x 2
add to favorites
launch autoscroll
font size
0
reset
guitar tuner
Tab Pro tools
  • play this tab
  • loop segment
  • change instrument
  • show fretboard
  • metronome
Autoscroll
slow
fast
+/-
esc
set tempo
stop
Contributor
Difficulty
novice
-----------------------------------------------------------------------------
On Top Of The World – Cheap Trick
-----------------------------------------------------------------------------
Tabbed by: Curt Lewis
E-mail: TLewis95@aol.com


Tuning: Standard (EADG)

Intro x12
G|----------------------------------------------------------------------------|
D|----------------------------------------------------------------------------|
A|----------------------------------------------------------------------------|
E|-----0-0-2-0-3-0-2-0-3-0-2-0-3-2-0------------------------------------------|

Chorus (You’re on top of the world etc…)
G|--------------------------------------------------------------------------|
D|------------------------------------------5-4-2---------------------------|
A|------------------------------------------------5-2-----------------------|
E|---0-0000----5-5555-----88888------------------------5--------------------|

Verse 1,2,4 and 5(It wasn’t easy it was hard as hell etc…)
G|--------------------------------------------------------------------------|
D|--------------------------------------------------------------------------|
A|--------------------------------------------------------------------------|
E|---2/333--2/333--2/333--2/333---7777777777777777---5555555555555555-------|

G|--------------------------------------------------------------------------|
D|--------------------------------------------------------------------------|
A|--------------------------------------------------------------------------|
E|---22222222-11111111------------------------------------------------------|

Verse 3 (Then he got religion and she got a god etc…)
G|--------------------------------------------------------------------------|
D|--------------------------------------------------------------------------|
A|--------------------------------------------------------------------------|
E|---2/333--2/333--2/333--2/333---7777777777777777---5555555555555555-------|

G|--------------------------------------------------------------------------|
D|--------------------------------------------------------------------------|
A|--------------------------------------------------------------------------|
E|--8888888888888888--------------------------------------------------------|

Intro x4
Chorus x1
Verse x2
Verse 3 x1
Intro x4
Chorus x2

Outro (Can you hear me? Can you see me?) Play to fade out
G|----------------------------------------------|
D|----------------------------------------------|
A|----------------------------------------------|
E|-33333333--77777777--55555555--88888888-------|

Enjoy!
comments
We did not receive enough feedback on this tab! Please rate:
print report bad tab
1 2 3 4 5
I want to post or [tab]
guest
You may want to rate the tab now too:
select rating
Please do not post tabs as comments. Select "correction" instead!