Oops, an error
Loading. Please wait.

Out In The Street Tab

version 2
version 2

Whole song

6,691 views 30 this week
no commentswrite comment
1 2 3 4 5
please rate
add to favorites
launch autoscroll
font size
0
reset
how to read this tab
guitar tuner
Autoscroll
slow
fast
+/-
esc
set tempo
stop
Help us to improve Ultimate-Guitar.com Take our survey!
×
Author
Difficulty
Song: Out In The Street
Band: Cheaptrick

This is also known as "That 70's Show Theme" and "That 70's Song"
I'm sorry about not having the solos. I may tab them out some other time and add it to 
but not now. This may not be perfect, but most of it is correct. Enjoy!

E|---|---------------------------------|
B|---|---------------------------------|
G|-7-|----------------7----12---7------|   x8
D|-7-|-------------0--7----12---7------|
A|-5-|-------0-1-2----5----10---5------|
E|---|-0-1-2---------------------------|

E|-----------------------------------------|
B|-----------------------------------------|
G|--7-------------------7------------------|   x4
D|--7---------------0---7--------------0---|
A|--5---------0-1-2-----5--------0-1-2-----|
E|------0-1-2--------------0-1-2-----------|

E|-------------------------------------|
B|-------------------------------------|
G|-------------------------------------|   x3
D|---5-5-5-5-4-4-4-4-2-2-2-2-2-2-2-2---|
A|---5-5-5-5-4-4-4-4-2-2-2-2-2-2-2-2---|
E|---4-4-4-4-2-2-4-2-0-0-0-0-0-0-0-0---|

E|-------------------------------------|
B|-------------------------------------|
G|-7--12--7----------------------------|   x2
D|-7--12--7--------------0-------------|
A|-5--10--5--------0-1-2---------------|
E|-----------0-1-2---------------------|

E|-----------------------------------------|
B|-----------------------------------------|
G|--7-------------------7------------------|   x4
D|--7---------------0---7--------------0---|
A|--5---------0-1-2-----5--------0-1-2-----|
E|------0-1-2--------------0-1-2-----------|

E|-------------------------------------|
B|-------------------------------------|
G|-------------------------------------|   x3
D|---5-5-5-5-4-4-4-4-2-2-2-2-2-2-2-2---|
A|---5-5-5-5-4-4-4-4-2-2-2-2-2-2-2-2---|
E|---4-4-4-4-2-2-4-2-0-0-0-0-0-0-0-0---|

E|-------------|      E|-----------------------|
B|-------------|      B|-----------------------|
G|-11--9--7-6--|  x2  G|-11---9-7-6--16--------|
D|-11--9--7-6--|      D|-11---9-7-6--16--9-----|
A|-9---7--5-4--|      A|-9----7-5-4--14--7-----|
E|-------------|      E|-----------------7-----|

E|--------------------------------------|
B|--------------------------------------|
G|------------------7---12--7-----------|  x2
D|--------------0---7---12--7-----------|
A|--------0-1-2-----5---10--5-----------|
E|--0-1-2-------------------------------|

E|----------------|---|
B|----------------|---|
G|----------------|-7-|  x4
D|-------------0--|-7-|
A|-------0-1-2----|-5-|
E|--0-1-2---------|---|

E|-------------------------------------|
B|-------------------------------------|
G|-------------------------------------|   x3
D|---5-5-5-5-4-4-4-4-2-2-2-2-2-2-2-2---|
A|---5-5-5-5-4-4-4-4-2-2-2-2-2-2-2-2---|
E|---4-4-4-4-2-2-4-2-0-0-0-0-0-0-0-0---|

E|-------------|      E|-----------------------|
B|-------------|      B|-----------------------|
G|-11--9--7-6--|  x2  G|-11---9-7-6--16--------|
D|-11--9--7-6--|      D|-11---9-7-6--16--9-----|
A|-9---7--5-4--|      A|-9----7-5-4--14--7-----|
E|-------------|      E|-----------------7-----|

E|--------------------------------------|
B|--------------------------------------|
G|------------------7---12--7-----------|  x2
D|--------------0---7---12--7-----------|
A|--------0-1-2-----5---10--5-----------|
E|--0-1-2-------------------------------|
Suggest correction
Give kudos to tab author, rate the tab!
1 2 3 4 5
comments
print report bad tab
guest
You may want to rate the tab now too:
select rating
Please do not post tabs as comments. Select "correction" instead!