Oops, an error
Loading. Please wait.

So Good To See You chords

331 views 1 this week
no commentswrite comment
1 2 3 4 5
2 more votes to show rating
add to favorites
×
Save as Personal and add changes to this tab that will be seen only by you. Learn more ›
×
You can save this tab as Personal to edit and correct it or add notes. All changes will be seen only by you. Learn more »
launch autoscroll
font size
0
reset
transpose
0
reset
display chords
guitar tuner
backing track
0:00
0:00
edit
Autoscroll
slow
fast
+/-
esc
set tempo
stop
Strumming
There is no strumming pattern for this song yet. and get +5 IQ
-------------------------------------------------------------------------------
                            So Good To See You-Cheap Trick
-------------------------------------------------------------------------------
Tabbed by:Nick V.
E-mail:BlindTerry333@gmail.com

Tuning:EADGBE

Chorus:

e|---------------------------------------------------------------------------|
B|-4--4-4-4-4-4--------------------------------------------------------------|
G|-4--4-4-4-4-4---2--2-2-2-2---5--5-5-5-5------------------------------------|
D|-4--4-4-4-4-4---2--2-2-2-2---6--6-6-6-6------------------------------------|
A|-2--2-2-2-2-2---0--0-0-0-0---6--6-6-6-6---2-2-4---2-2-2-4---2-2-2-4--------|
E|-----------------------------4--4-4-4-4---0-0-0---0-0-0-0---0-0-0-0--------|

e|---------------------------------------------------------------------------|
B|---------------------------------------------------------------------------|
G|---------------------------------------------------------------------------|
D|---------------------------------------------------------------------------|
A|-2-2-2-4---2-2-2-4---------------------------------------------------------|
E|-0-0-0-0---0-0-0-0---------------------------------------------------------|

e|---------------------------------------------------------------------------|
B|-4--4-4-4-4-4--------------------------------------------------------------|
G|-4--4-4-4-4-4---2--2-2-2-2---5--5-5-5-5---4-4-4-4-4-4-4--------------------|
D|-4--4-4-4-4-4---2--2-2-2-2---6--6-6-6-6---5-5-5-5-5-5-5---2--2-2-2-2-2-----|
A|-2--2-2-2-2-2---0--0-0-0-0---6--6-6-6-6---5-5-5-5-5-5-5---0--0-0-0-0-0-----|
E|-----------------------------4--4-4-4-4---3-3-3-3-3-4-3--------------------|

[Riff #1]
e|---------------------------------------------------------------------------|
B|---------------------------------------------------------------------------|
G|---------------------------------------------------------------------------|
D|-------0-0-0---------------------------------------------------------------|
A|-2-2-2-------4-4--0-0-0----------------------------------------------------|
E|------------------------2-2-2--0-0-----------------------------------------|        
Oh, it's so good to see you
I couldn't wait another day
Oh, I hope everyone missed you
You know they want you to stay

Verse:

e|---------------------------------------------------------------------------|
B|---------------------------------------------------------------------------|
G|---------------------------------------------------------------------------|
D|---------------------------------------------------------------------------|
A|-5-5-7--5-5-5-7--5-5-5-7--5-5-5-7--2-2-4--2-2-2-4--2-2-2-4--2-2-2---3-4-5--|
E|-3-3-3--3-3-3-3--3-3-3-3--3-3-3-3--0-0-0--0-0-0-0--0-0-0-0--0-0-0---1-2-3--|

e|---------------------------------------------------------------------------|
B|---------------------------------------------------------------------------|
G|---------------------------------------------------------------------------|
D|--------------------------------------------------------------------5-4----|
A|-5-5-7--5-5-5-7--5-5-5-7--5-5-5-7--2-2-4--2-2-2-4--2-2-2-4--2-2-2---3-2----|
E|-3-3-3--3-3-3-3--3-3-3-3--3-3-3-3--0-0-0--0-0-0-0--0-0-0-0--0-0-0----------|


e|---------------------------------------------------------------------------|
B|-4-4-4-4-4-4-4---9---7-7---6-6--5-5---4------------------------------------|
G|-4-4-4-4-4-4-4---9---7-7---6-6--5-5---4------------------------------------|
D|-4-4-4-4-4-4-4---9---7-7---6-6--5-5---4------------------------------------|
A|-2-2-2-2-2-2-2---7---5-5---4-4--3-3---2------------------------------------|
E|-----------------0---------------------------------------------------------|
                                             [Riff #2]
e|---------------------------------------------------------------------------|
B|-4-4-4-4-4-4-4---9---7-7---6-6--5-5---4-----------------------0-0-0--4-----|
G|-4-4-4-4-4-4-4---9---7-7---6-6--5-5---4------------------------------------|
D|-4-4-4-4-4-4-4---9---7-7---6-6--5-5---4----------1-1-1--4-4-4--------------|
A|-2-2-2-2-2-2-2---7---5-5---4-4--3-3---2---2-2-2----------------------------|
E|-----------------0---------------------------------------------------------|

Home in one month
Couldn't feel better if i tried
Won't even write
It's better that'll be a surprise
I can't expect to be a household word
I don't mind, just let me inside
I don't expect to be seen or heard
I won't mind, I've nothin' to hide

Chorus:

e|---------------------------------------------------------------------------|
B|-4--4-4-4-4-4--------------------------------------------------------------|
G|-4--4-4-4-4-4---2--2-2-2-2---5--5-5-5-5------------------------------------|
D|-4--4-4-4-4-4---2--2-2-2-2---6--6-6-6-6------------------------------------|
A|-2--2-2-2-2-2---0--0-0-0-0---6--6-6-6-6---2-2-4---2-2-2-4---2-2-2-4--------|
E|-----------------------------4--4-4-4-4---0-0-0---0-0-0-0---0-0-0-0--------|

e|---------------------------------------------------------------------------|
B|---------------------------------------------------------------------------|
G|---------------------------------------------------------------------------|
D|---------------------------------------------------------------------------|
A|-2-2-2-4---2-2-2-4---------------------------------------------------------|
E|-0-0-0-0---0-0-0-0---------------------------------------------------------|

e|---------------------------------------------------------------------------|
B|-4--4-4-4-4-4--------------------------------------------------------------|
G|-4--4-4-4-4-4---2--2-2-2-2---5--5-5-5-5---4-4-4-4-4-4-4--------------------|
D|-4--4-4-4-4-4---2--2-2-2-2---6--6-6-6-6---5-5-5-5-5-5-5---2--2-2-2-2-2-----|
A|-2--2-2-2-2-2---0--0-0-0-0---6--6-6-6-6---5-5-5-5-5-5-5---0--0-0-0-0-0-----|
E|-----------------------------4--4-4-4-4---3-3-3-3-3-4-3--------------------|

[Riff #1]
e|---------------------------------------------------------------------------|
B|---------------------------------------------------------------------------|
G|---------------------------------------------------------------------------|
D|-------0-0-0---------------------------------------------------------------|
A|-2-2-2-------4-4--0-0-0----------------------------------------------------|
E|------------------------2-2-2--0-0-----------------------------------------|

Oh, it's so good to see you
I couldn't wait another day
So good to see you
Oh, i hope everyone missed you
You know they want you to stay


e|---------------------------------------------------------------------------|
B|---------------------------------------------------------------------------|
G|---------------------------------------------------------------------------|
D|---------------------------------------------------------------------------|
A|-5-5-7--5-5-5-7--5-5-5-7--5-5-5-7--2-2-4--2-2-2-4--2-2-2-4--2-2-2---3-4-5--|
E|-3-3-3--3-3-3-3--3-3-3-3--3-3-3-3--0-0-0--0-0-0-0--0-0-0-0--0-0-0---1-2-3--|

e|---------------------------------------------------------------------------|
B|---------------------------------------------------------------------------|
G|---------------------------------------------------------------------------|
D|--------------------------------------------------------------------5-4----|
A|-5-5-7--5-5-5-7--5-5-5-7--5-5-5-7--2-2-4--2-2-2-4--2-2-2-4--2-2-2---3-2----|
E|-3-3-3--3-3-3-3--3-3-3-3--3-3-3-3--0-0-0--0-0-0-0--0-0-0-0--0-0-0----------|

Verse:

e|---------------------------------------------------------------------------|
B|-4-4-4-4-4-4-4---9---7-7---6-6--5-5---4------------------------------------|
G|-4-4-4-4-4-4-4---9---7-7---6-6--5-5---4------------------------------------|
D|-4-4-4-4-4-4-4---9---7-7---6-6--5-5---4------------------------------------|
A|-2-2-2-2-2-2-2---7---5-5---4-4--3-3---2------------------------------------|
E|-----------------0---------------------------------------------------------|
                                             [Riff #2]
e|---------------------------------------------------------------------------|
B|-4-4-4-4-4-4-4---9---7-7---6-6--5-5---4-----------------------0-0-0--4-----|
G|-4-4-4-4-4-4-4---9---7-7---6-6--5-5---4------------------------------------|
D|-4-4-4-4-4-4-4---9---7-7---6-6--5-5---4----------1-1-1--4-4-4--------------|
A|-2-2-2-2-2-2-2---7---5-5---4-4--3-3---2---2-2-2----------------------------|
E|-----------------0---------------------------------------------------------|

Home in one week
Gettin' so much closer all the time
Seems like overnight
It's better that'll be a surprise
We shouldn't get to be too close friends
I don't mind, i've nothin' to hide
We couldn't get to be too close friends
You won't mind if you've nothin' to hide

e|---------------------------------------------------------------------------|
B|-4--4-4-4-4-4--------------------------------------------------------------|
G|-4--4-4-4-4-4---2--2-2-2-2---5--5-5-5-5------------------------------------|
D|-4--4-4-4-4-4---2--2-2-2-2---6--6-6-6-6------------------------------------|
A|-2--2-2-2-2-2---0--0-0-0-0---6--6-6-6-6---2-2-4---2-2-2-4---2-2-2-4--------|
E|-----------------------------4--4-4-4-4---0-0-0---0-0-0-0---0-0-0-0--------|

e|---------------------------------------------------------------------------|
B|---------------------------------------------------------------------------|
G|---------------------------------------------------------------------------|
D|---------------------------------------------------------------------------|
A|-2-2-2-4---2-2-2-4---------------------------------------------------------|
E|-0-0-0-0---0-0-0-0---------------------------------------------------------|

e|---------------------------------------------------------------------------|
B|-4--4-4-4-4-4--------------------------------------------------------------|
G|-4--4-4-4-4-4---2--2-2-2-2---5--5-5-5-5---4-4-4-4-4-4-4--------------------|
D|-4--4-4-4-4-4---2--2-2-2-2---6--6-6-6-6---5-5-5-5-5-5-5---2--2-2-2-2-2-----|
A|-2--2-2-2-2-2---0--0-0-0-0---6--6-6-6-6---5-5-5-5-5-5-5---0--0-0-0-0-0-----|
E|-----------------------------4--4-4-4-4---3-3-3-3-3-4-3--------------------|

[Riff #1]
e|---------------------------------------------------------------------------|
B|---------------------------------------------------------------------------|
G|---------------------------------------------------------------------------|
D|-------0-0-0---------------------------------------------------------------|
A|-2-2-2-------4-4--0-0-0----------------------------------------------------|
E|------------------------2-2-2--0-0-----------------------------------------|    

Oh, it's so good to see you
I couldn't wait another day
So good to see you
Oh, i hope everyone missed you
You know they want you to stay


Bridge:
e|---------------------------------------------------------------------------|
B|-9--9-9-9---7--7-7-7---6--6-6-6---5--5-5-5---------------------------------|
G|-9--9-9-9---7--7-7-7---6--6-6-6---5--5-5-5---------------------------------|
D|-9--9-9-9---7--7-7-7---6--6-6-6---5--5-5-5---------------------------------|
A|-7--7-7-7---5--5-5-5---4--4-4-4---3--3-3-3---------------------------------|
E|-0--0-0-0------------------------------------------------------------------|

e|---------------------------------------------------------------------------|
B|-9--9-9-9---7--7-7-7---6--6-6-6---5--5-5-5---------------------------------|
G|-9--9-9-9---7--7-7-7---6--6-6-6---5--5-5-5---------------------------------|
D|-9--9-9-9---7--7-7-7---6--6-6-6---5--5-5-5---------------------------------|
A|-7--7-7-7---5--5-5-5---4--4-4-4---3--3-3-3---------------------------------|
E|-0--0-0-0------------------------------------------------------------------|

Don't stop to think what you're doin'
I'll surprise you anytime
Don't stop to do what you're thinkin'
You're just wastin' your time

Chorus:
e|---------------------------------------------------------------------------|
B|-4--4-4-4-4-4--------------------------------------------------------------|
G|-4--4-4-4-4-4---2--2-2-2-2---5--5-5-5-5------------------------------------|
D|-4--4-4-4-4-4---2--2-2-2-2---6--6-6-6-6------------------------------------|
A|-2--2-2-2-2-2---0--0-0-0-0---6--6-6-6-6---2-2-4---2-2-2-4---2-2-2-4--------|
E|-----------------------------4--4-4-4-4---0-0-0---0-0-0-0---0-0-0-0--------|

e|---------------------------------------------------------------------------|
B|---------------------------------------------------------------------------|
G|---------------------------------------------------------------------------|
D|---------------------------------------------------------------------------|
A|-2-2-2-4---2-2-2-4---------------------------------------------------------|
E|-0-0-0-0---0-0-0-0---------------------------------------------------------|

e|---------------------------------------------------------------------------|
B|-4--4-4-4-4-4--------------------------------------------------------------|
G|-4--4-4-4-4-4---2--2-2-2-2---5--5-5-5-5---4-4-4-4-4-4-4--------------------|
D|-4--4-4-4-4-4---2--2-2-2-2---6--6-6-6-6---5-5-5-5-5-5-5---2--2-2-2-2-2-----|
A|-2--2-2-2-2-2---0--0-0-0-0---6--6-6-6-6---5-5-5-5-5-5-5---0--0-0-0-0-0-----|
E|-----------------------------4--4-4-4-4---3-3-3-3-3-4-3--------------------|

Ooh, it's so good to see you
I couldn't wait another day
So good to see you
Oh, i hope everyone missed you
I really want you to stay

Ending:
e|---------------------------------------------------------------------------|
B|---------------------------------------------------------------------------|
G|-5-5-5-5-5-5-5-5-5--5---2-2-2-2-2-2-2---5--2-------------------------------|
D|-4-4-4-4-4-4-4-4-4--4---2-2-2-2-2-2-2---4--2-------------------------------|
A|-4-4-4-4-4-4-4-4-4--4---0-0-0-0-0-0-0---4--0-------------------------------|
E|-3-3-3-3-3-3-3-3-3--3-------------------3----------------------------------| 

e|---------------------------------------------------------------------------|
B|-4-4-4-4-4-4-4-4-4-4-4-4-4-4-4-4-4-4-4---4---------------------------------|
G|-4-4-4-4-4-4-4-4-4-4-4-4-4-4-4-4-4-4-4---4---------------------------------|
D|-4-4-4-4-4-4-4-4-4-4-4-4-4-4-4-4-4-4-4---4---------------------------------|
A|-2-2-2-2-2-2-2-2-2-2-2-2-2-2-2-2-2-2-2---2---------------------------------|
E|---------------------------------------------------------------------------|


Questions, comments, insults...BlindTerry333

            
            
Suggest correction
Creating personal tab
Creating personal tab
You can edit any tab online and save it as your Personal.

You can edit, replace or remove any tab part or add personal notes – all changes will be seen only by you.

Personal tabs can be accessed anytime from any device, even offline.
Learn more »
Give kudos to tab author, rate the tab!
1 2 3 4 5
comments
print report bad tab
guest
You may want to rate the tab now too:
select rating
Wanna post a correction for this tab? Suggest correction