Oops, an error
Loading. Please wait.

Surrender Bass Tab

version 1
version 1

Whole song

Interactive

27,606 views 66 this week
no commentswrite comment
1 2 3 4 5
x 16
add to favorites
launch autoscroll
font size
0
reset
guitar tuner
Autoscroll
slow
fast
+/-
esc
set tempo
stop
Help us to improve Ultimate-Guitar.com Take our survey!
×
Author
Adam again, this is a serious part of my tabbing as you can see, please do not
take this for your credit because i have busted my ass making this...
SYKE actualy theres a program that changes notes from your guitar into tabs you
can get it off kazaa but oh wtf.

Gtr I (E A D G)

Intro
Moderately Fast Rock Q=134 1.
 4/4
WQE E QE E QE E E E E E QE E H
|----------||----------------|----------------|---------------|
|----------||o---------------|----------------|---------------|
|----------||o---------------|----------------|--------/13----|
|----------||--6----6-6----6-|-6----6---6---6-|-6--4s6--------|


 2.
 Q.E+QQ E E E E Q. E E E E E E E E E
|-------15-(15)--------||----------------|-----------------||
|-15-------------15\--o||----------------|-----------------||
|---------------------o||----------------|-----------------||
|----------------------||-6-6---6------6-|-6-6---6---6---6-||


 1st Verse
E E E E E E E E E E E E E E E E E E E E E E E E QE E E E E E
|-----------------|-----------------|-----------------|-----------------|
|-----------------|-----------------|-----------------|-----------------|
|-2-2---2---2-----|-----------------|-----------------|-2----2---2---2--|
|-------------0-1-|-2-2---2---2---2-|-0-0---0---0---0-|-----------------|


QE E E E E E QE E E E E E QE E E E E E QE E E E E E
|----------------|----------------|----------------|-----------------||
|----------------|----------------|----------------|-----------------||
|-2----2---2-----|----------------|----------------|-2----2---2---2--||
|------------0-1-|-2----2---2---2-|-0----0---0---0-|-----------------||


 Pre-Chorus
E E E E E E E E E E E E E E E E QE E E E E E QE E E E E E
|-----------------|-----------------|----------------|-----------------|
|-----------------|-----------------|----------------|-----------------|
|-----------------|-----------------|-2----2---2---2-|-2----2---2-0----|
|-0-0---0---0---0-|-2-2---2---2---2-|----------------|--------------2--|


EEE E E E E E QE E E E E E QS S E E E E E E E E E E E E E
|-------------------|----------------|------------------|---4-------------||
|-------------------|----------------|------------------|-----------------||
|-------------------|----------------|-2--x-x-2-2-2---2-|-2-----2---2---2-||
|-0-(0)---0---0---0-|-2----2-2-2---2-|------------------|-----------------||


 1st & 2nd Chorus
$
QE E QE E QE E E E E E QE E E E E E QE E E E E E
|---------------|----------------|----------------|-----------------|
|---------------|----------------|----------------|-----------------|
|-2----2-2----2-|----------------|----------------|-----------------|
|---------------|-4----4---4---4-|-2----2-2-2---2-|-0----2---2---2--|


QE E QE E QE E E E E E QE E QE E Q. E E E E E
|---------------|----------------|---------------|-----------------|
|---------------|----------------|---------------|-----------------|
|---------------|----------------|---------------|-----------------|
|-2----2-2----2-|-4----4---4---4-|-2----2-2----2-|-0----0---0---0--|


To Coda
Q. E E E E E E E E E EEE E E E E E E E EE
|----------------|-------------------|-------------------||
|----------------|-------------------|-------------------||
|----------------|-------------------|-------------------||
|-0----0---0---0-|-0-0---0-0-(0)---0-|-0-0---0---0---(0)-||


 Re-Intro
QE E QE E QE E E E E E
|---------------|----------------|
|---------------|----------------|
|-2----2-2----2-|-2----2---2---2-|
|---------------|----------------|


Q +E aE+QQ +E EEE+QQ
|-----------------------16--|-(16)-------16-(16)-------|
|---------------------------|--------------------------|
|-/14--(14)s12s14-(14)------|------14-14----------14\--|
|---------------------------|--------------------------|


QE E QE E QE E E E E E E E E E E E E E E E E E E E E E
|---------------|----------------|-----------------|------------------||
|---------------|----------------|-----------------|------------------||
|-2----2-2----2-|-2----2---2-0-2-|-2-2-0-2---2---2-|---2---2---2-0----||
|---------------|----------------|-----------------|---------------2--||


 2nd Verse
E E E E E E E E E E E E E E E E E E E E E E E E QE E S S E S S E
|-----------------|-----------------|-----------------|---------------------|
|-----------------|-----------------|-----------------|---------------------|
|-2-2---2---2-----|-----------------|-----------------|-2----2-x-x-2-x-x-2--|
|-------------0-1-|-2-2---2---2---2-|-0-0---0---0---0-|---------------------|


QE E QE E EEE E E E E E E E E E E E E E E E E E E E EE
|---------------|-------------------|-----------------|--------------------||
|---------------|-------------------|-----------------|--------------------||
|---------------|-------------------|-----------------|-2-2---2---0--------||
|-2----2----0-1-|-2-(2)---2---2---2-|-0-0---0---0---0-|-------------2-(1)--||


 2nd Pre-Chorus
E E E E E E E E E E E E E E E E QS S E S S E S S E QS S E E E E E
|-----------------|-----------------|----------------------|-------------------|
|-----------------|-----------------|----------------------|-------------------|
|-----------------|-----------------|-2--x-x-2-x-x-2-x-x-2-|-2--x-x-2---2-0----|
|-0-0---0---0---0-|-2-2---2---2---2-|----------------------|----------------2--|


 D.S. al Coda
Q. E E E E E E E E E E E E E QS S E S S E S S E QS S E E E E E
|----------------|-----------------|----------------------|-------------------||
|----------------|-----------------|----------------------|-------------------||
|----------------|-----------------|-2--x-x-2-x-x-2-x-x-2-|-2--x-x-2---2-0----||
|-0----0---0---0-|-2-2---2---2---2-|----------------------|----------------2--||


&
QE E QE E QE E E E E E QE E QE S S E S S S S E E E E E
|---------------|----------------|-----------------|---------------------|
|---------------|----------------|-----------------|---------------------|
|-2----2-2----2-|-2----2---2---2-|-2----2-2--2-x-x-|-2-2-0---x-2---2-0---|
|---------------|----------------|-----------------|-------------------2-|


QE E QE E QE E E E E E E E E E E E E E E E E E Q +Q
|---------------|----------------|-----------------|----------------------||
|---------------|----------------|-----------------|----------------------||
|-2----2-2----2-|-2----2---2-0-2-|-2-2-0-2---2---2-|---2---2-/14--(14)\---||
|---------------|----------------|-----------------|----------------------||


 3rd Verse
E E E E E E E E QE E E E E E QE E E E E E QS S E S S E S S E
|-----------------|----------------|----------------|----------------------|
|-----------------|----------------|----------------|----------------------|
|-3-3---3---------|----------------|----------------|-3--x-x-3-x-x-3-x-x-3-|
|-----------0-1-2-|-3----3---3---0-|-1----1---1---1-|----------------------|


Q. E E E E E QE E E E E E QE E E E E E QE E +EE EE
|----------------|----------------|----------------|--------------------||
|----------------|----------------|----------------|--------------------||
|-3----3---------|----------------|----------------|-3----3-(3)-0-------||
|----------0-1-2-|-3----3---3---3-|-1----1---1---1-|--------------3-(0)-||


 3rd Pre-Chorus
E E E E E E E E E E E E E E E E
|-----------------|-----------------|
|-----------------|-----------------|
|-----------------|-----------------|
|-1-1---1---1---1-|-3-3---3---3---3-|


QS S E S S E S S E E E S S E S S E E E
|----------------------|---5------------------|
|----------------------|----------------------|
|-3--x-x-3-x-x-3-x-x-3-|-3---x-x-3-x-x-3-1----|
|----------------------|-------------------3--|


E E E E E E E E E E E E E E E E E E S S E +EE E E E E E E E E E E
|-----------------|-----------------|---------------------|------------------||
|-----------------|-----------------|---------------------|------------------||
|-----------------|-----------------|-3-3-x-x-3-(3)-3-3-3-|-3-3-3-3-3-3-3-3--||
|-1-1---1-1-1-1-1-|-3-3---3---3---3-|---------------------|------------------||


 3rd Chorus
QE E QE E QE E QE E QE E E E E E Q. E S S E S S E
|---------------|---------------|----------------|--------------------|
|---------------|---------------|----------------|--------------------|
|-3----3-3----3-|---------------|----------------|--------------------|
|---------------|-5----5-5----5-|-3----3-3-3---3-|-1----1-x-x-1-x-x-1-|


QE E QE E QE E QE E QE E S S E S S E
|---------------|---------------|--------------------|
|---------------|---------------|--------------------|
|-3----3-3----3-|---------------|--------------------|
|---------------|-5----5-5----5-|-3----3-x-x-3-x-x-3-|


EE EE E E E E Q. E E E E E E QE E QE E E E E E E E E
|---------------------|----------------|---------------|-----------------||
|---------------------|----------------|---------------|---3-3-3-3-3-3---||
|---------------------|----------------|---------------|---------------0-||
|-1-(1)-(1)-1---1---1-|-1----1---1-1-1-|-1-1--1-0h1--1-|-1---------------||


 Out-Chorus
QE E QE E QE E QE S S QE E E E E E E E E E E E E E
|---------------|-----------------|----------------|------------------|
|-------------1S|=3----3-3----3-2-|----------------|------------------|
|-3----3-3------|-----------------|-3----3-3-3---3-|------------------|
|---------------|-----------------|----------------|---3-3-3-3-3-3-3--|


QE E QE E QE E QE E QE E QE E E QE E E E E
|---------------|---------------|---------------|----------------|
|---------------|---------------|---------------|----------------|
|-3----3-3----3-|---------------|---------------|----------------|
|---------------|-5----5-5----5-|-3----3-3----3-|-1-1--1---1---1-|


QE E QE E QE E QE E QE E QE E E E E E +EE E E
|---------------|---------------|---------------|-------------------|
|---------------|---------------|---------------|-------------------|
|-3----3-3----3-|---------------|---------------|-------------------|
|---------------|-5----5-5----5-|-3----3-3----3-|-1-1-1-1-(1)-1-1-1-|


QE E QE E QE E QE E QE E QE E E E E E E E E E 3x
||----------------|---------------|---------------|-------------------||
||o---------------|---------------|---------------|------------------o||
||o-3----3-3----3-|---------------|---------------|------------------o||
||----------------|-5----5-5----5-|-3----3-3----3-|-1-1-1-1-1-1-1-1---||


Duration Legend
---------------
W - whole; H - half; Q - quarter; E - 8th; S - 16th; T - 32nd; X - 64th; a - acciaccatura
+ - note tied to previous; . - note dotted; .. - note double dotted
Uncapitalized letters represent notes that are staccato (1/2 duration)
Irregular groupings are notated above the duration line
Duration letters will always appear directly above the note/fret number it represents the
duration for.Duration letters with no fret number below them represent rests.Multi-
bar rests are notated in the form Wxn, where n is the number of bars to rest for.Low
melody durations appear below the staff

Tablature Legend
----------------
 h - hammer-on
 p - pull-off
 b - bend
 pb- pre-bend
 r - bend release (if no number after the r, then release immediately)
 /\- slide into or out of (from/to "nowhere")
 s - legato slide
 S - shift slide
- natural harmonic
[n]- artificial harmonic
n(n) - tapped harmonic
 ~ - vibrato
 tr- trill
 T - tap
 TP- trem. picking
 PM- palm muting
\n/- tremolo bar dip; n = amount to dip
 \n- tremolo bar down
 n/- tremolo bar up
/n\- tremolo bar inverted dip
 = - hold bend; also acts as connecting device for hammers/pulls
 <>- volume swell (louder/softer)
 x - on rhythm slash represents muted slash
 o - on rhythm slash represents single note slash

Misc Legend
-----------
 |- bar
||- double bar
||o - repeat start
o|| - repeat end
*|- double bar (ending)
 :- bar (freetime)
 $- Segno
 &- Coda
Tempo markers -  = BPM(8/16=s8/s16), where s8 = swing 8ths, s16 = swing 16ths

Sorry its so complicated wasnt me it was the program ;) contact JOE_BLOW @
vector5555555555@yahoo.com
Suggest correction
comments
print report bad tab
guest
You may want to rate the tab now too:
select rating
Wanna post a correction for this tab? Suggest correction